Home » T » Tyler Joseph »

Tyler Joseph - Drown Tabs

Artists:  A B C D E F G H I J K L M N O P Q R S T U V W X Y Z # 

Drown Tabs

(ver. 1) Click to play this song!
Tyler Joseph
 Rating:
4.4/5 (12 votes)
                [Intro]

e|---5--3-2--------5--3-2------------5--3-2-----0----------------------------|
B|--------------------------3------------------------3-----------------------|
G|---------------------------------------------------------------------------|
D|---------------------------------------------------------------------------|
A|---------------------------------------------------------------------------|
E|---------------------------------------------------------------------------|

e|---5--7-2--------5--3-2------------5--7-2-----0----------------------------|
B|--------------------------3------------------------3-----------------------|
G|---------------------------------------------------------------------------|
D|---------------------------------------------------------------------------|
A|---------------------------------------------------------------------------|
E|---------------------------------------------------------------------------|

            
Submit corrections

↑ Back to top | Tablatures and chords for acoustic guitar and electric guitar, ukulele, drums are parodies/interpretations of the original songs. You may use it for private study, scholarship, research or language learning purposes only