» » »

Tv On The Radio - Hours Bass

Artists:  A B C D E F G H I J K L M N O P Q R S T U V W X Y Z # 

Hours Bass

(ver. 1) Click to play this song!
Tv On The Radio
 Rating:
4/5 (4 votes)
                main riff
--------------------------|
-7--5---------------------|
-------5--7-8-----7--5-4--|
---------------4----------|

first bridge
--------------------------|
--------------------------|
-3----2----3--7-5-3-2-----|
--------------------------|

second bridge
---------------------|
---------------------|
-3----2----3----2----|
---------------------|
            
Submit corrections

↑ Back to top | Tablatures and chords for acoustic guitar and electric guitar, ukulele, drums are parodies/interpretations of the original songs. You may use it for private study, scholarship, research or language learning purposes only