Home » T » Trooper »

Trooper - The Boys In The Bright White Sports Car Tabs

Artists:  A B C D E F G H I J K L M N O P Q R S T U V W X Y Z # 

The Boys In The Bright White Sports Car Tabs

(ver. 1) Click to play this song!
Trooper
Solo]
e|-----------------------------------------------------------------------------------------|
B|-----------------------------------------------------------------------------------------|
G|---------6b(7)-----------------------------8b(10)-(10)-(10)-(10)-(10)-(10)-(10)p8p6------|
D|-8-6b~-8-------8-8p6---8-6-----------8-6-8------------------------------------------6-8~-|
A|---------------------8-------------------------------------------------------------------|
E|---------------------------9b(10)-6\-----------------------------------------------------|


e|-------------------------------------------------11b(13)r11-9--------------11b(13)r11----|
B|----------------------------9~------11b(13)r11-9--------------11b(13)r11-9---------------|
G|--------6-8b(9)r8-6-(9)r8-6--------------------------------------------------------------|
D|-6-8/10----------------------------------------------------------------------------------|
A|-----------------------------------------------------------------------------------------|
E|-----------------------------------------------------------------------------------------|


e|----------------------------------13-11------11------------------------------------|
B|-13b(14)~---14b(16)~---16b(18)~---------14------14-13---14-13-11---13-11----11~-\--|
G|-------------------------------------------------------------------------13--------|
D|-----------------------------------------------------------------------------------|
A|-----------------------------------------------------------------------------------|
E|-----------------------------------------------------------------------------------|


e|---------------------------------------------9b(11)----11b(13)-(13)-(13)-(13)-(13)-(13)--|
B|------9-9-------9-9-------9-9--11b(13)r11~-----------------------------------------------|
G|-7/10------7/10------7/10----------------------------------------------------------------|
D|-----------------------------------------------------------------------------------------|
A|-----------------------------------------------------------------------------------------|
E|-----------------------------------------------------------------------------------------|


e|-(13)r11-9-11b(13)~---14b(16)~--16b(18)~---(18)r16-(18)r16-(18)r16-(18)r16--16b(18)~-----|
B|-----------------------------------------------------------------------------------------|
G|-----------------------------------------------------------------------------------------|
D|-----------------------------------------------------------------------------------------|
A|-----------------------------------------------------------------------------------------|
E|-----------------------------------------------------------------------------------------|            
Submit corrections

↑ Back to top | Tablatures and chords for acoustic guitar and electric guitar, ukulele, drums are parodies/interpretations of the original songs. You may use it for private study, scholarship, research or language learning purposes only