Home » T » Troggs »

Troggs - Love Is All Around Bass

Artists:  A B C D E F G H I J K L M N O P Q R S T U V W X Y Z # 

Love Is All Around Bass

(ver. 1) Click to play this song!
Troggs
Intro:
G--------------------|
D-----5-5-7--7-7-5---|
A-5-5--------------7-|
E--------------------|

Verse:
G-----------------|
D-----------------|
A-5-5-------------|
E-----0-0-3-3-5-5-|

Pre-chorus:
G-----------|
D-----------|
A-2-0-------|
E-----2-0-2-|

Chorus:
G---------------------------------------------------------|
D---------------------------------------------------------|
A----------------------5--5-5-----------------------------|
E-3--3-3-0--0-0-3--3-3--------3--3-3-0--0-0-0--0-0-5--5-5-|

After chorus:
G-------|
D-------|
A-0-2-4-|
E-------|
            
Submit corrections

↑ Back to top | Tablatures and chords for acoustic guitar and electric guitar, ukulele, drums are parodies/interpretations of the original songs. You may use it for private study, scholarship, research or language learning purposes only