Home » T » Trivium »

Trivium - What The Dead Men Say Chords

Artists:  A B C D E F G H I J K L M N O P Q R S T U V W X Y Z # 

What The Dead Men Say Chords

(ver. 1) Click to play this song!
Trivium
[Intro]
P.M.- - - - - - - - - - - - - - - - - - - - - - - - - - - - - - - - - - - - -
Eb|--------------------------------------------------------------------------|
Bb|--------------------------------------------------------------------------|
Gb|--------------------------------------------------------------------------|
Db|---10-9-10-7-10----10---10---10-----------9-7-9-5-9---9---9---9-----------|
Ab|-7--------------10----9----7----6-7-9-7-7-----------9---7---6---3-6-7-3-3-|
Eb|--------------------------------------------------------------------------|
Ab|--------------------------------------------------------------------------|
 
P.M.- - - - - - - - - - - - - - - - - - - - - - - - - - - - - - - - - -
Eb|---------------------------------------------------------------------|
Bb|---------------------------------------------------------------------|
Gb|---------------------------------------------------------------------|
Db|-7-5-7-4-7---7---7---7-----------9-7-9-5-9---9---13-10-13-9-13----13-|
Ab|-----------7---6---3---2-3-6-3-6-----------9---9---------------12----|
Eb|---------------------------------------------------------------------|
Ab|---------------------------------------------------------------------|
 
P.M.- - - - - - - - - - - - - - - - - - - - - - - - - - - - - - - - - - - - -
Eb|--------------------------------------------------------------------------|
Bb|--------------------------------------------------------------------------|
Gb|--------------------------------------------------------------------------|
Db|---10-9-10-7-10----10---10---10-----------9-7-9-5-9---9---9---9-----------|
Ab|-7--------------10----9----7----6-7-9-7-7-----------9---7---6---3-6-7-3-3-|
Eb|--------------------------------------------------------------------------|
Ab|--------------------------------------------------------------------------|
 
P.M.- - - - - - - - - - - - - - - - - - - - - - - - - - - - - - - - - -
Eb|---------------------------------------------------------------------|
Bb|---------------------------------------------------------------------|
Gb|---------------------------------------------------------------------|
Db|-7-5-7-4-7---7---7---7-----------9-7-9-5-9---9---13-10-13-9-13----13-|
Ab|-----------7---6---3---2-3-6-3-6-----------9---9---------------12----|
Eb|---------------------------------------------------------------------|
Ab|---------------------------------------------------------------------|
 
P.M.- - - - - - - - - - - - - - - - - - - - - - - - - - - - - - - - - - - - -
Eb|--------------------------------------------------------------------------|
Bb|--------------------------------------------------------------------------|
Gb|--------------------------------------------------------------------------|
Db|---10-9-10-7-10----10---10---10-----------9-7-9-5-9---9---9---9-----------|
Ab|-7--------------10----9----7----6-7-9-7-7-----------9---7---6---3-6-7-3-3-|
Eb|--------------------------------------------------------------------------|
Ab|--------------------------------------------------------------------------|
 
P.M.- - - - - - - - - - - - - - - - - - - - - - - - - - - - - - - - - -
Eb|---------------------------------------------------------------------|
Bb|---------------------------------------------------------------------|
Gb|---------------------------------------------------------------------|
Db|-7-5-7-4-7---7---7---7-----------9-7-9-5-9---9---13-10-13-9-13----13-|
Ab|-----------7---6---3---2-3-6-3-6-----------9---9---------------12----|
Eb|---------------------------------------------------------------------|
Ab|---------------------------------------------------------------------|
 
 
 
[riff ]
 
P.M.  - -|    -|   - -|                   -|   -|  - -|  -|  - - -|
Eb|-------------------------------------------------------------------------|
Bb|-------------------------------------------------------------------------|
Gb|----------------------------------------------------9---8----------------|
Db|----------------------7---7-9-7h9r7------10---9-----------------10-9-8-9-|
Ab|-7-----6-9---10---------------------10-----------------------------------|
Eb|---0-0-----0----0-0-8---8--------------7----7---7-7---7---7-7-7-8--7-6-7-|
Ab|-------------------------------------------------------------------------|
 
P.M.  - -|    -|   - -|                   -|   -|  - -|  -|  - - -|
Eb|-------------------------------------------------------------------------|
Bb|-------------------------------------------------------------------------|
Gb|----------------------------------------------------9---8----------------|
Db|----------------------7---7-9-7h9r7------10---9------------------9-9-9-9-|
Ab|-7-----6-9---10---------------------10-----------------------------------|
Eb|---0-0-----0----0-0-8---8--------------7----7---7-7---7---7-7-7--7-7-7-7-|
Ab|-------------------------------------------------------------------------|
 
P.M.  - -|    -|   - -|                   -|   -|  - -|  -|  - - -|          -|   -|  - -|  -|
Eb|---------------------------------------------------------------------------------------------|
Bb|---------------------------------------------------------------------------------------------|
Gb|----------------------------------------------------9---8------------------------------9---8-|
Db|----------------------7---7-9-7h9r7------10---9-----------------10-9-8-9----10---9-----------|
Ab|-7-----6-9---10---------------------10-------------------------------------------------------|
Eb|---0-0-----0----0-0-8---8--------------7----7---7-7---7---7-7-7-8--7-6-7--7----7---7-7---7---|
Ab|---------------------------------------------------------------------------------------------|
 
P.M.- - -      - - - -   - - -                             - - -  - - - -   - - -                - - - -
Eb|------------------------------------------------------------------------------------------------------|
Bb|------------------------------------------------------------------------------------------------------|
Gb|------------------------------------------------------------------------------------------------------|
Db|------------------------------------------------------------------------------------------------------|
Ab|------------------------------------------------------------------------------------------------------|
Eb|-6-6-6-7------------------------------------------------6-6-6-7-------------------------------3-3-3-2-|
Ab|------------7-7-7-7-8-4-4-4-5-1-1-1-0--0--1-1-1-0--0------------7-7-7-7-8-4-4-4-5-1-1-1-0--0--1-1-1-0-|
 
P.M.- - -      - - - -   - - -                             - - -  - - - -   - - -
Eb|------------------------------------------------------------------------------------------------------|
Bb|------------------------------------------------------------------------------------------------------|
Gb|------------------------------------------------------------------------------------------------------|
Db|------------------------------------------------------------------------------------------------------|
Ab|------------------------------------------------------------------------------------------------------|
Eb|-6-6-6-7------------------------------------------------6-6-6-7---------------------------------------|
Ab|------------7-7-7-7-8-4-4-4-5-1-1-1-0--0--1-1-1-0--0------------7-7-7-7-8-4-4-4-5-1-1-1-0--0--1-1-1-0-|
 
Eb|--------------------------------------x---------x-------------------------------------------------------|
Bb|--------------------------------------x---------x-------------------------------------------------------|
Gb|--------------------------------------x---------x-------------------------------------------------------|
Db|--------------------------------------x---------x-------------------------------------------------------|
Ab|--------------------------------------x---------x-----------------------------------------------------6-|
Eb|-6-6-6-7------------------------------x---------x-6-6-6-7---------------------------------------5-7-5---|
Ab|------------7-7-7-7-8-4-4-4-5-1-1-1-0---1-1-1-0-----------7-7-7-7-8-4-4-4-5-1-1-1-0--0--0-4-7-8---------|
 
[Verse]
   LET RING
Eb|-----7-----7---------7-----7----------8-----8---------8-----8-----|
Bb|-8-----8-----8---8-----8-----8----8-----8-----8---8-----8-----8---|
Gb|---9-----9-----9---9-----9-----9----9-----9-----9---9-----9-----9-|
Db|------------------------------------------------------------------|
Ab|------------------------------------------------------------------|
Eb|------------------------------------------------------------------|
Ab|------------------------------------------------------------------|
 
Eb|-----7-----7---------7-----7----------8-----8-----11-------11-14-|
Bb|-8-----8-----8---8-----8-----8----8-----8-----8-7----10----------|
Gb|---9-----9-----9---9-----9-----9----9-----9-------------11-------|
Db|-----------------------------------------------------------------|
Ab|-----------------------------------------------------------------|
Eb|-----------------------------------------------------------------|
Ab|-----------------------------------------------------------------|
 
[pre chorus]
 
P.M.  - -|    -|   - -|                   -|   -|  - -|  -|  - - -|
Eb|-------------------------------------------------------------------------|
Bb|-------------------------------------------------------------------------|
Gb|----------------------------------------------------9---8----------------|
Db|----------------------7---7-9-7h9r7------10---9-----------------10-9-8-9-|
Ab|-7-----6-9---10---------------------10-----------------------------------|
Eb|---0-0-----0----0-0-8---8--------------7----7---7-7---7---7-7-7-8--7-6-7-|
Ab|-------------------------------------------------------------------------|
 
P.M.  - -|    -|   - -|                   -|   -|  - -|  -|
Bb|----------------------------------------------------------|
Gb|----------------------------------------------------9---8-|
Db|----------------------7---7-9-7h9r7------10---9-----------|
Ab|-7-----6-9---10---------------------10--------------------|
Eb|---0-0-----0----0-0-8---8--------------7----7---7-7---7---|
Ab|----------------------------------------------------------|
 
[Chorus]
   What the dead men say
Eb|-----------------------------------------------------------------------------------------------|
Bb|----8-0-0-7-0-3-5---5---8-0-0-7-0-3-5--10-0-8-0-7-0---8-0-0-7-0-3-5---5---10-0-0-8-0-0-12---10-|
Gb|-----------------------------------------------------------------------------------------------|
Db|-----------------------------------------------------------------------------------------------|
Ab|-----------------------------------------------------------------------------------------------|
Eb|-----------------------------------------------------------------------------------------------|
Ab|-----------------------------------------------------------------------------------------------|
 
Eb|------------------------------------------------------------------------------------7-|
Bb|---8-0-0-7-0-3-5---5---8-0-0-7-0-3-5--10-0-8-0-7-0--8-0-0-7-0-3-5---5---8-0-0-7-0-0---|
Gb|--------------------------------------------------------------------------------------|
Db|--------------------------------------------------------------------------------------|
Ab|--------------------------------------------------------------------------------------|
Eb|--------------------------------------------------------------------------------------|
Ab|--------------------------------------------------------------------------------------|
 
[Pre Verse]
 
Eb|-------------------------------------x---------x------------------------------------x--------------------|
Bb|-------------------------------------x---------x------------------------------------x--------------------|
Gb|-------------------------------------x---------x------------------------------------x--------------------|
Db|-------------------------------------x---------x------------------------------------x--------------------|
Ab|-------------------------------------x---------x------------------------------------x------------------6-|
Eb|-6-6-6-7-----------------------------x---------x-6-6-6-7----------------------------x------------5-7-5---|
Ab|-----------7-7-7-7-8-4-4-4-5-1-1-1-0---1-1-1-0------------7-7-7-7-8-4-4-4-5-1-1-1-0-x-0--0-4-7-8---------|
 
[Verse 2]
 
Eb|-----7-----7---------7-----7----------8-----8---------8-----8-----|
Bb|-8-----8-----8---8-----8-----8----8-----8-----8---8-----8-----8---|
Gb|---9-----9-----9---9-----9-----9----9-----9-----9---9-----9-----9-|
Db|------------------------------------------------------------------|
Ab|------------------------------------------------------------------|
Eb|------------------------------------------------------------------|
Ab|------------------------------------------------------------------|
 
Eb|-----7-----7---------7-----7----------8-----8-----11-------11-14-|
Bb|-8-----8-----8---8-----8-----8----8-----8-----8-7----10----------|
Gb|---9-----9-----9---9-----9-----9----9-----9-------------11-------|
Db|-----------------------------------------------------------------|
Ab|-----------------------------------------------------------------|
Eb|-----------------------------------------------------------------|
Ab|-----------------------------------------------------------------|
 
 
[Pre Chorus]
 
P.M.  - -|    -|   - -|                   -|   -|  - -|  -|  - - -|
Eb|-------------------------------------------------------------------------|
Bb|-------------------------------------------------------------------------|
Gb|----------------------------------------------------9---8----------------|
Db|----------------------7---7-9-7h9r7------10---9-----------------10-9-8-9-|
Ab|-7-----6-9---10---------------------10-----------------------------------|
Eb|---0-0-----0----0-0-8---8--------------7----7---7-7---7---7-7-7-8--7-6-7-|
Ab|-------------------------------------------------------------------------|
 
P.M.  - -|    -|   - -|                   -|   -|  - -|  -|
Eb|----------------------------------------------------------|
Bb|----------------------------------------------------------|
Gb|----------------------------------------------------9---8-|
Db|----------------------7---7-9-7h9r7------10---9-----------|
Ab|-7-----6-9---10---------------------10--------------------|
Eb|---0-0-----0----0-0-8---8--------------7----7---7-7---7---|
Ab|----------------------------------------------------------|
 
[Chorus]
 
   What the dead men say
Eb|-----------------------------------------------------------------------------------------------|
Bb|----8-0-0-7-0-3-5---5---8-0-0-7-0-3-5--10-0-8-0-7-0---8-0-0-7-0-3-5---5---10-0-0-8-0-0-12---10-|
Gb|-----------------------------------------------------------------------------------------------|
Db|-----------------------------------------------------------------------------------------------|
Ab|-----------------------------------------------------------------------------------------------|
Eb|-----------------------------------------------------------------------------------------------|
Ab|-----------------------------------------------------------------------------------------------|
 
Eb|----------------------------------------------------------------------|
Bb|---8-0-0-7-0-3-5---5---8-0-0-7-0-3-5--10-0-8-0-7-0--8-0-0-7-0-3-5---5-|
Gb|----------------------------------------------------------------------|
Db|----------------------------------------------------------------------|
Ab|----------------------------------------------------------------------|
Eb|----------------------------------------------------------------------|
Ab|----------------------------------------------------------------------|
 
 
Eb|--------------------------------------------------------------------|
Bb|-------------4b5-4-4-4-4-4-4-4-4-4-4-4-4-4-4-4-4-4-4-4-4-4-4-4-4----|
Gb|--------------------------------------------------------------------|
Db|-----------------------------------------------------------------8\-|
Ab|-9--9--13--------------------------------------------------------6\-|
Eb|-7--7--11-----------------------------------------------------------|
Ab|-7--7---------------------------------------------------------------|
 
[Breakdown]
P.M.- - -|       - - - - - - - - - - - -|  - - - - -|      - - -|        - - -|
Eb|----------------------------------------------------------------------------------|
Bb|----------------------------------------------------------------------------------|
Gb|----------------------------------------------------------------------------------|
Db|-3-3-3-4---\--x---------x--x----------5-----------5-7-4-------3-3-3-3-3-3-3-4---\-|
Ab|-1-1-1-2---\--x---------x--x--2-2-2-4-3-5-5-5-5-5-5-7-4-4-4-4-3-3-3-3-1-1-1-2---\-|
Eb|--------------x-x-x-x-x-x--x--0-0-0-2-3-3-3-3-3-3-3-5-2-2-2-2-1-1-1-1-------------|
Ab|----------------------------------------------------------------------------------|
 
P.M.- - -|       - - - - - - - - - - - -|  - - - - -|      - - -|        - - -|
Eb|----------------------------------------------------------------------------------|
Bb|----------------------------------------------------------------------------------|
Gb|----------------------------------------------------------------------------------|
Db|-3-3-3-4---\--x---------x--x----------5-----------5-7-4-------3-3-3-3-3-3-3-4---\-|
Ab|-1-1-1-2---\--x---------x--x--2-2-2-4-3-5-5-5-5-5-5-7-4-4-4-4-3-3-3-3-1-1-1-2---\-|
Eb|--------------x-x-x-x-x-x--x--0-0-0-2-3-3-3-3-3-3-3-5-2-2-2-2-1-1-1-1-------------|
Ab|----------------------------------------------------------------------------------|
 
P.M.- - -|       - - - - - - - - - - - -|  - - - - -|      - - -|        - - -|
Eb|----------------------------------------------------------------------------------|
Bb|----------------------------------------------------------------------------------|
Gb|----------------------------------------------------------------------------------|
Db|-3-3-3-4---\--x---------x--x----------5-----------5-7-4-------3-3-3-3-3-3-3-4---\-|
Ab|-1-1-1-2---\--x---------x--x--2-2-2-4-3-5-5-5-5-5-5-7-4-4-4-4-3-3-3-3-1-1-1-2---\-|
Eb|--------------x-x-x-x-x-x--x--0-0-0-2-3-3-3-3-3-3-3-5-2-2-2-2-1-1-1-1-------------|
Ab|----------------------------------------------------------------------------------|
 
 
 
 
[Intro again]
 
P.M.- - - - - - - - - - - - - - - - - - - - - - - - - - - - - - - - - - - - -
Eb|--------------------------------------------------------------------------|
Bb|--------------------------------------------------------------------------|
Gb|--------------------------------------------------------------------------|
Db|---10-9-10-7-10----10---10---10-----------9-7-9-5-9---9---9---9-----------|
Ab|-7--------------10----9----7----6-7-9-7-7-----------9---7---6---3-6-7-3-3-|
Eb|--------------------------------------------------------------------------|
Ab|--------------------------------------------------------------------------|
 
P.M.- - - - - - - - - - - - - - - - - - - - - - - - - - - - - - - - - -
Eb|---------------------------------------------------------------------|
Bb|---------------------------------------------------------------------|
Gb|---------------------------------------------------------------------|
Db|-7-5-7-4-7---7---7---7-----------9-7-9-5-9---9---13-10-13-9-13----13-|
Ab|-----------7---6---3---2-3-6-3-6-----------9---9---------------12----|
Eb|---------------------------------------------------------------------|
Ab|---------------------------------------------------------------------|
 
P.M.- - - - - - - - - - - - - - - - - - - - - - - - - - - - - - - - - - - - -
Eb|--------------------------------------------------------------------------|
Bb|--------------------------------------------------------------------------|
Gb|--------------------------------------------------------------------------|
Db|---10-9-10-7-10----10---10---10-----------9-7-9-5-9---9---9---9-----------|
Ab|-7--------------10----9----7----6-7-9-7-7-----------9---7---6---3-6-7-3-3-|
Eb|--------------------------------------------------------------------------|
Ab|--------------------------------------------------------------------------|
 
P.M.- - - - - - - - - - - - - - - - - - - - - - - - - - - - - - - - - -
Eb|---------------------------------------------------------------------|
Bb|---------------------------------------------------------------------|
Gb|---------------------------------------------------------------------|
Db|-7-5-7-4-7---7---7---7-----------9-7-9-5-9---9---13-10-13-9-13----13-|
Ab|-----------7---6---3---2-3-6-3-6-----------9---9---------------12----|
Eb|---------------------------------------------------------------------|
Ab|---------------------------------------------------------------------|
 
[Theme 2]
 
 
Eb|---------------------------------8-7--8-6--8-7-8-5-8---8---8-------------------------------------|
Bb|------------7-8-10-8-7-------7-8---------------------8---7---5-7-8-7-5-7-5-4-5-7-8-7-5-7-5-3-3-4-|
Gb|----------9------------9-8-9---------------------------------------------------------------------|
Db|--------9----------------------------------------------------------------------------------------|
Ab|-7-9-10------------------------------------------------------------------------------------------|
Eb|-------------------------------------------------------------------------------------------------|
Ab|-------------------------------------------------------------------------------------------------|
 
Eb|-7---8-5---8-7-8-5-8---8-------|
Bb|---------------------8---------|
Gb|-------------------------------|
Db|-------------------------9---\-|
Ab|-------------------------9---\-|
Eb|-------------------------------|
Ab|-------------------------------|
 
[pre solo]
 
Eb|----------------------------------------------------------|
Bb|----------------------------------------------------------|
Gb|----------------------------------------------------9---8-|
Db|----------------------7---7-9-7h9r7------10---9-----------|
Ab|-7-----6-9---10---------------------10--------------------|
Eb|---0-0-----0----0-0-8---8--------------7----7---7-7---7---|
Ab|----------------------------------------------------------|
 
[solo]
 
Eb|--3--2--5--3--7--5--8--7--12--11--8--7------11--8--7---------|
Bb|----------------------------------------10------------10--7~-|
Gb|-------------------------------------------------------------|
Db|-------------------------------------------------------------|
Ab|-------------------------------------------------------------|
Eb|-------------------------------------------------------------|
Ab|-------------------------------------------------------------|
 
 
Eb|-8-0-0-7-0-0-11-0-0-8-0-0-15-0-0-14-0-0-17-15-0-0-17-15-14----------14-12-11--------------|
Bb|-----------------------------------------------------------17-16-13----------13-12-10-----|
Gb|--------------------------------------------------------------------------------------11~-|
Db|------------------------------------------------------------------------------------------|
Ab|------------------------------------------------------------------------------------------|
Eb|------------------------------------------------------------------------------------------|
Ab|------------------------------------------------------------------------------------------|
 
[Outro]
 
   What the dead men say
Eb|-----------------------------------------------------------------------------------------------|
Bb|----8-0-0-7-0-3-5---5---8-0-0-7-0-3-5--10-0-8-0-7-0---8-0-0-7-0-3-5---5---10-0-0-8-0-0-12---10-|
Gb|-----------------------------------------------------------------------------------------------|
Db|-----------------------------------------------------------------------------------------------|
Ab|-----------------------------------------------------------------------------------------------|
Eb|-----------------------------------------------------------------------------------------------|
Ab|-----------------------------------------------------------------------------------------------|
 
Eb|--------------------------------------------------------------------|
Bb|-8-0-0-7-0-3-5---5---8-0-0-7-0-3-5--10-0-8-0-7-0--8-0-0-7-0-3-5---5-|
Gb|--------------------------------------------------------------------|
Db|--------------------------------------------------------------------|
Ab|--------------------------------------------------------------------|
Eb|--------------------------------------------------------------------|
Ab|--------------------------------------------------------------------|
 
Eb|------------------------------------------------------------------------------------------|
Bb|-8-0-0-7-0-0-12---10---8-0-0-7-0-3-5---5---8-0-0-7-0-3-5--10-0-8-0-7-0--8-0-0-7-0-3-5---5-|
Gb|------------------------------------------------------------------------------------------|
Db|------------------------------------------------------------------------------------------|
Ab|------------------------------------------------------------------------------------------|
Eb|------------------------------------------------------------------------------------------|
Ab|------------------------------------------------------------------------------------------|
 
Eb|-------------------------------------------------------------------------------------------|
Bb|-10-0-0-8-0-0-12---10---8-0-0-7-0-3-5---5---8-0-0-7-0-3-5--10-0-8-0-7-0--8-0-0-7-0-3-5---5-|
Gb|-------------------------------------------------------------------------------------------|
Db|-------------------------------------------------------------------------------------------|
Ab|-------------------------------------------------------------------------------------------|
Eb|-------------------------------------------------------------------------------------------|
Ab|-------------------------------------------------------------------------------------------|
 
Eb|-------------7---7~------7-7-7-7--5-7-|
Bb|-8-0-0-7-0-0--------------------------|
Gb|--------------------------------------|
Db|--------------------------------------|
Ab|--------------------------------------|
Eb|--------------------------------------|
Ab|--------------------------------------|
            
Submit corrections

↑ Back to top | Tablatures and chords for acoustic guitar and electric guitar, ukulele, drums are parodies/interpretations of the original songs. You may use it for private study, scholarship, research or language learning purposes only