» » »

Trivium - The Sin And The Sentence Tabs

Artists:  A B C D E F G H I J K L M N O P Q R S T U V W X Y Z # 

The Sin And The Sentence Tabs

(ver. 1) Click to play this song!
Trivium
 Rating:
4.3/5 (27 votes)

 The Sin And The Sentence lessons Tabs too difficult? Try these video lessons and learn fast
 
                

[Intro]

Gtr 1

D#|-----------14-14-14-------------------------------|--------------------------------------------------|
A#|--12-12-12----------15-15-14-14-14-15-15-15-17-17-|--12-12-12-12-12-12-12-12-12-12-12-12-12-12-12-12-|
F#|--------------------------------------------------|--------------------------------------------------|
C#|--------------------------------------------------|--------------------------------------------------|
G#|--------------------------------------------------|--------------------------------------------------|
D#|--------------------------------------------------|--------------------------------------------------|
A#|--------------------------------------------------|--------------------------------------------------|

D#|-----------14-14-14-------------------------------|--------------------------------------------------|
A#|--12-12-12----------15-15-14-14-14-15-15-15-17-17-|--14-14-14-14-14-14-14-14-15-15-15-15-17-17-17-17-|
F#|--------------------------------------------------|--------------------------------------------------|
C#|--------------------------------------------------|--------------------------------------------------| x 2
G#|--------------------------------------------------|--------------------------------------------------|
D#|--------------------------------------------------|--------------------------------------------------|
A#|--------------------------------------------------|--------------------------------------------------|

Gtr 2

D#|----------------------------------|----------------------------------|
A#|----------------------------------|----------------------------------|
F#|----------------------------------|----------------------------------|
C#|--5-5-5-5-5-5-5-5-5-5-5-5-5-5-5-5-|--9-9-9-9-9-9-9-9-9-9-9-9-9-9-9-9-|
G#|--5-5-5-5-5-5-5-5-5-5-5-5-5-5-5-5-|--9-9-9-9-9-9-9-9-9-9-9-9-9-9-9-9-|
D#|--3-3-3-3-3-3-3-3-3-3-3-3-3-3-3-3-|--7-7-7-7-7-7-7-7-7-7-7-7-7-7-7-7-|
A#|----------------------------------|----------------------------------|

D#|----------------------------------|----------------------------------|
A#|----------------------------------|----------------------------------|
F#|----------------------------------|----------------------------------|
C#|----------------------------------|--7-7-7-7-7-7-7-7-7-7-7-7-7-7-7-7-|
G#|--5-5-5-5-5-5-5-5-5-5-5-5-5-5-5-5-|--7-7-7-7-7-7-7-7-7-7-7-7-7-7-7-7-|
D#|--5-5-5-5-5-5-5-5-5-5-5-5-5-5-5-5-|--5-5-5-5-5-5-5-5-5-5-5-5-5-5-5-5-|
A#|--3-3-3-3-3-3-3-3-3-3-3-3-3-3-3-3-|----------------------------------|

D#|----------------------------------|----------------------------------|
A#|----------------------------------|----------------------------------|
F#|----------------------------------|----------------------------------|
C#|--5-5-5-5-5-5-5-5-5-5-5-5-5-5-5-5-|--9-9-9-9-9-9-9-9-9-9-9-9-9-9-9-9-|
G#|--5-5-5-5-5-5-5-5-5-5-5-5-5-5-5-5-|--9-9-9-9-9-9-9-9-9-9-9-9-9-9-9-9-|
D#|--3-3-3-3-3-3-3-3-3-3-3-3-3-3-3-3-|--7-7-7-7-7-7-7-7-7-7-7-7-7-7-7-7-|
A#|----------------------------------|----------------------------------|

D#|----------------------------------|----------------------------------|
A#|----------------------------------|----------------------------------|
F#|----------------------------------|----------------------------------|
C#|----------------------------------|--7-7-7-7-7-7-7-7-4---------------|
G#|--5-5-5-5-5-5-5-5-5-5-5-5-5-5-5-5-|--7-7-7-7-7-7-7-7-4---------------|
D#|--5-5-5-5-5-5-5-5-5-5-5-5-5-5-5-5-|--5-5-5-5-5-5-5-5-2---------------|
A#|--3-3-3-3-3-3-3-3-3-3-3-3-3-3-3-3-|----------------------------------|


[Verse]

Gtr 1

D#|--0--------------------------------------------|--------------------------0---0---0----|
A#|--3--------------------------------------------|--------------------------3---3---3----|
F#|--4--------------------------------------------|--------------------------4---4---4-4--|
C#|--4--------------------------------------------|--------------------------4---4---4-4--|
G#|--2--2--2--2--2--2--2--2--2--2--2--2--2--2--2--|--2--2--2--2--2--2--2--2--2---2---2-2--|
D#|-----------------------------------------------|---------------------------------------|
A#|-----------------------------------------------|---------------------------------------|
        PM----------------------------------------------------------------|

D#|-----------------------------------------------|-------------------------------------|
A#|--2--------------------------------------------|--------------------------2---2---2--|
F#|--2--------------------------------------------|--------------------------2---2---2--|
C#|--2--------------------------------------------|--------------------------2---2---2--|
G#|--0--0--0--0--0--0--0--0--0--0--0--0--0--0--0--|--0--0--0--0--0--0--0--0--0---0---0--|
D#|-----------------------------------------------|-------------------------------------|
A#|-----------------------------------------------|-------------------------------------|
        PM----------------------------------------------------------------|

D#|-----------------------------------------------|---------------------------------------|
A#|-----------------------------------------------|--------------------------0---0---0-0--|
F#|--4--------------------------------------------|--------------------------4---4---4-4--|
C#|--5--------------------------------------------|--------------------------5---5---5-5--|
G#|--5--------------------------------------------|--------------------------5---5---5-5--|
D#|--3--3--3--3--3--3--3--3--3--3--3--3--3--3--3--|--3--3--3--3--3--3--3--3--3---3---3-3--|
A#|-----------------------------------------------|---------------------------------------|
        PM----------------------------------------------------------------|

D#|-----------------------------------------------|---------------------------|
A#|--2--------------------------------------------|--2------------------------|
F#|--2--------------------------------------------|--2------------------------|
C#|--2--------------------------------------------|--2------------------------|
G#|--0--0--0--0--0--0--0--0--0--0--0--0--0--0--0--|--0------------------------|
D#|-----------------------------------------------|------------10--9--7--9----|
A#|-----------------------------------------------|-------------8--7--5--7----|
        PM-------------------------------------|

Gtr 2

D#|---------------------|---------------------|---------------------|----------------------|
A#|---------------------|---------------------|---------------------|----------------------|
F#|--4------------------|------------------4--|--2------------------|-----------2---2---2--|
C#|--4------------------|------------------4--|--2------------------|-----------2---2---2--|
G#|--2------------------|------------------2--|--0------------------|-----------0---0---0--|
D#|---------------------|---------------------|---------------------|----------------------|
A#|---------------------|---------------------|---------------------|----------------------|

D#|---------------------|---------------------|-------------------------|
A#|---------------------|---------------------|-------------------------|
F#|---------------------|---------------------|-------------------------|
C#|--5------------------|------------------5--|--7----------------------|
G#|--5------------------|------------------5--|--7----------------------|
D#|--3------------------|------------------3--|--5---------10--9--7--9--|
A#|---------------------|---------------------|-------------8--7--5--7--|


[Pre Chorus]

Gtr 1

D#|---------------------|------------------------|---------------------|-----------------------|
A#|---------------------|------------------------|---------------------|-----------------------|
F#|---------------------|------------------------|---------------------|-----------------------|
C#|--9--------11--------|--12--------14----16----|--9--------11--------|--12--------11----7----|
G#|--x---------x--------|---x---------x-----x----|--x---------x--------|---x---------x----x----|
D#|--7---------9--------|--10--------12----14----|--7---------9--------|--10---------9----5----|
A#|---------------------|------------------------|---------------------|-----------------------|

D#|------------------------------------------|--------------------------------------------------|
A#|------------------------------------------|--------------------------------------------------|
F#|------------------------------------------|--------------------------------------------------|
C#|--9-9-9-9-9-9-9-9-11-11-11-11-11-11-11-11-|--12-12-12-12-12-12-12-12-14-14-14-14-16-16-16-16-|
G#|--x-x-x-x-x-x-x-x--x--x--x--x--x--x--x--x-|---x--x--x--x--x--x--x--x--x--x--x--x--x--x--x--x-|
D#|--7-7-7-7-7-7-7-7--9--9--9--9--9--9--9--9-|--10-10-10-10-10-10-10-10-12-12-12-12-14-14-14-14-|
A#|------------------------------------------|--------------------------------------------------|

D#|------------------------------------------|-------------------------------------|
A#|------------------------------------------|-------------------------------------|
F#|------------------------------------------|-------------------------------------|
C#|--9-9-9-9-9-9-9-9-11-11-11-11-11-11-11-11-|--12-12-12-12-12-12-12-12-14---------|
G#|--x-x-x-x-x-x-x-x--x--x--x--x--x--x--x--x-|---x--x--x--x--x--x--x--x--x---------|
D#|--7-7-7-7-7-7-7-7--9--9--9--9--9--9--9--9-|--10-10-10-10-10-10-10-10-12---------|
A#|------------------------------------------|-------------------------------------|

Gtr 2

D#|----------------------------------------------|----------------------------------------------|
A#|----------------------------------------------|----------------------------------------------|
F#|----------------------------------------------|----------------------------------------------|
C#|----------------------------------------------|----------------------------------------------|
G#|----------------------------------------------|----------------------------------------------|
D#|--7-------5-------7-------12-------10----9-10-|--7-------5-------7------14-------12----10----|
A#|----0--0----0--0----0--0-----0--0-----0-------|----0--0----0--0----0--0----0--0-----0-----0--|
       PM-|    PM-|    PM-|     PM-|    PM            PM-|    PM-|    PM-|    PM-|     PM   PM

D#|----------------------------------------------|-----------------------------------------|
A#|----------------------------------------------|-----------------------------------------|
F#|----------------------------------------------|-----------------------------------------|
C#|----------------------------------------------|-----------------------------------------|
G#|----------------------------------------------|----------------------9-7----------------|
D#|--7-------5-------7-------12-------10----9-10-|--7-------5-------7-------10-9-10-9-7----|
A#|----0--0----0--0----0--0-----0--0-----0-------|----0--0----0--0----0-----------------10-|
       PM-|    PM-|    PM-|     PM-|    PM            PM-|    PM-|    PM

D#|----------------------------------------------|----------------------------------------------|
A#|----------------------------------------------|----------------------------------------------|
F#|----------------------------------------------|----------------------------------------------|
C#|----------------------------------------------|----------------------------------------------|
G#|----------------------------------------------|----------------------------------------------|
D#|--7-------5-------7-------12-------10----9-10-|--7-------5-------7------14-------12----10----|
A#|----0--0----0--0----0--0-----0--0-----0-------|----0--0----0--0----0--0----0--0-----0-----0--|
       PM-|    PM-|    PM-|     PM-|    PM            PM-|    PM-|    PM-|    PM-|     PM   PM

D#|----------------------------------------------|-----------------------------------------|
A#|----------------------------------------------|-----------------------------------------|
F#|----------------------------------------------|-----------------------------------------|
C#|----------------------------------------------|-----------------------------------------|
G#|----------------------------------------------|-----------------------------------------|
D#|--7-------5-------7-------12-------10----9-10-|--7-------5-------7----7-----------------|
A#|----0--0----0--0----0--0-----0--0-----0-------|----0--0----0--0----0--5-----------------|
       PM-|    PM-|    PM-|     PM-|    PM            PM-|    PM-|    PM

[Chorus]

Both Gtrs

D#|-----------------------------------|------------------------------------|
A#|-----------------------------------|------------------------------------|
F#|-----------------------------------|------------------------------------|
C#|-----------------------------------|------------------------------------|
G#|-----------------------------------|------------------------------------|
D#|--------------------/10--9--7--9~--|---------------------------10--12~--|
A#|--0--10--12~--0--0-----------------|--0--10--12~--0--0--/8--7-----------|
                 PM-|                                PM-|

D#|-----------------------------------|---------------------------------|
A#|-----------------------------------|---------------------------------|
F#|-----------------------------------|---------------------------------|
C#|-----------------------------------|---------------------------------|
G#|-----------------------------------|---------------------------------|
D#|--------------------/10--9--7--9~--|--------------------10--9--7--9--|
A#|--0--10--12~--0--0-----------------|--0--10--12~--0--0---8--7--5--7--|
                 PM-|                                PM-|

D#|-----------------------------------|----------------------------------|
A#|-----------------------------------|----------------------------------|
F#|-----------------------------------|----------------------------------|
C#|-----------------------------------|----------------------------------|
G#|-----------------------------------|----------------------------------|
D#|--------------------/10--9--7--9~--|--------------------10--12--------|
A#|--0--10--12~--0--0-----------------|--0--10--12~--0--0----------7--8~-|
                 PM-|                                PM-|

D#|-----------------------------------|----------------------------------|
A#|-----------------------------------|----------------------------------|
F#|-----------------------------------|----------------------------------|
C#|-----------------------------------|----------------------------------|
G#|-----------------------------------|----------------------------------|
D#|--------------------/10--9--7--9~--|--------------------10--9--10-----|
A#|--0--10--12~--0--0-----------------|--0--10--12~--0--0---8--7---8-----|
                 PM-|                                PM-|

[Verse 2]

Gtr 1

D#|-----------------------------------------------|--------------------------------------------------|
A#|-----------------------------------------------|--------------------------------------------------|
F#|--4--------------------------------------------|-----------------------------------------------4--|
C#|--4--------------------------------------------|-----------------------------------------------4--|
G#|--2--2--2--2--2--2--2--2--2--2--2--2--2--2--2--|--2--2--2--2--2--2--2--2--2--2--2--2--2--2--2--2--|
D#|-----------------------------------------------|--------------------------------------------------|
A#|-----------------------------------------------|--------------------------------------------------|
        PM-------------------------------------------------------------------------------------|

D#|-----------------------------------------------|-------------------------------------|
A#|-----------------------------------------------|-------------------------------------|
F#|--2--------------------------------------------|--------------------------2---2---2--|
C#|--2--------------------------------------------|--------------------------2---2---2--|
G#|--0--0--0--0--0--0--0--0--0--0--0--0--0--0--0--|--0--0--0--0--0--0--0--0--0---0---0--|
D#|-----------------------------------------------|-------------------------------------|
A#|-----------------------------------------------|-------------------------------------|
        PM----------------------------------------------------------------|

D#|-----------------------------------------------|--------------------------------------------------|
A#|-----------------------------------------------|--------------------------------------------------|
F#|-----------------------------------------------|--------------------------------------------------|
C#|--5--------------------------------------------|-----------------------------------------------5--|
G#|--5--------------------------------------------|-----------------------------------------------5--|
D#|--3--3--3--3--3--3--3--3--3--3--3--3--3--3--3--|--3--3--3--3--3--3--3--3--3--3--3--3--3--3--3--3--|
A#|-----------------------------------------------|--------------------------------------------------|
        PM-------------------------------------------------------------------------------------|

D#|-----------------------------------------------|---------------------------|
A#|-----------------------------------------------|---------------------------|
F#|--2--------------------------------------------|--2------------------------|
C#|--2--------------------------------------------|--2------------------------|
G#|--0--0--0--0--0--0--0--0--0--0--0--0--0--0--0--|--0------------------------|
D#|-----------------------------------------------|------------10--9--7--9----|
A#|-----------------------------------------------|-------------8--7--5--7----|
       PM--------------------------------------|

Gtr 2

D#|-------------------|--0------------------|-------------------|--0------------------|
A#|--3----------------|---------3-----------|--2----------------|---------2-----------|
F#|--4----------------|----------------4----|--2----------------|----------------4----|
C#|--4----------------|---------------------|--2----------------|---------------------|
G#|--2----------------|---------------------|--0----------------|---------------------|
D#|-------------------|---------------------|-------------------|---------------------|
A#|-------------------|---------------------|-------------------|---------------------|

D#|-------------------|--0------------------|-------------------|-------------------------|
A#|--0----------------|---------0-----------|--2----------------|-------------------------|
F#|--4----------------|---------------------|--2----------------|--2----------------------|
C#|--5----------------|---------------------|--2----------------|--2----------------------|
G#|--5----------------|---------------------|--0----------------|--0----------------------|
D#|--3----------------|---------------------|-------------------|------------10--9--7--9--|
A#|-------------------|---------------------|-------------------|-------------8--7--5--7--|

[Pre Chorus]

Gtr 1

D#|---------------------|------------------------|---------------------|-----------------------|
A#|---------------------|------------------------|---------------------|-----------------------|
F#|---------------------|------------------------|---------------------|-----------------------|
C#|--9--------11--------|--12--------14----16----|--9--------11--------|--12--------11----7----|
G#|--x---------x--------|---x---------x-----x----|--x---------x--------|---x---------x----x----|
D#|--7---------9--------|--10--------12----14----|--7---------9--------|--10---------9----5----|
A#|---------------------|------------------------|---------------------|-----------------------|

D#|------------------------------------------|--------------------------------------------------|
A#|------------------------------------------|--------------------------------------------------|
F#|------------------------------------------|--------------------------------------------------|
C#|--9-9-9-9-9-9-9-9-11-11-11-11-11-11-11-11-|--12-12-12-12-12-12-12-12-14-14-14-14-16-16-16-16-|
G#|--x-x-x-x-x-x-x-x--x--x--x--x--x--x--x--x-|---x--x--x--x--x--x--x--x--x--x--x--x--x--x--x--x-|
D#|--7-7-7-7-7-7-7-7--9--9--9--9--9--9--9--9-|--10-10-10-10-10-10-10-10-12-12-12-12-14-14-14-14-|
A#|------------------------------------------|--------------------------------------------------|

D#|------------------------------------------|-------------------------------------|
A#|------------------------------------------|-------------------------------------|
F#|------------------------------------------|-------------------------------------|
C#|--9-9-9-9-9-9-9-9-11-11-11-11-11-11-11-11-|--12-12-12-12-12-12-12-12-14---------|
G#|--x-x-x-x-x-x-x-x--x--x--x--x--x--x--x--x-|---x--x--x--x--x--x--x--x--x---------|
D#|--7-7-7-7-7-7-7-7--9--9--9--9--9--9--9--9-|--10-10-10-10-10-10-10-10-12---------|
A#|------------------------------------------|-------------------------------------|

Gtr 2

D#|----------------------------------------------|----------------------------------------------|
A#|----------------------------------------------|----------------------------------------------|
F#|----------------------------------------------|----------------------------------------------|
C#|----------------------------------------------|----------------------------------------------|
G#|----------------------------------------------|----------------------------------------------|
D#|--7-------5-------7-------12-------10----9-10-|--7-------5-------7------14-------12----10----|
A#|----0--0----0--0----0--0-----0--0-----0-------|----0--0----0--0----0--0----0--0-----0-----0--|
       PM-|    PM-|    PM-|     PM-|    PM            PM-|    PM-|    PM-|    PM-|     PM   PM

D#|----------------------------------------------|-----------------------------------------|
A#|----------------------------------------------|-----------------------------------------|
F#|----------------------------------------------|-----------------------------------------|
C#|----------------------------------------------|-----------------------------------------|
G#|----------------------------------------------|----------------------9-7----------------|
D#|--7-------5-------7-------12-------10----9-10-|--7-------5-------7-------10-9-10-9-7----|
A#|----0--0----0--0----0--0-----0--0-----0-------|----0--0----0--0----0-----------------10-|
       PM-|    PM-|    PM-|     PM-|    PM            PM-|    PM-|    PM

D#|----------------------------------------------|----------------------------------------------|
A#|----------------------------------------------|----------------------------------------------|
F#|----------------------------------------------|----------------------------------------------|
C#|----------------------------------------------|----------------------------------------------|
G#|----------------------------------------------|----------------------------------------------|
D#|--7-------5-------7-------12-------10----9-10-|--7-------5-------7------14-------12----10----|
A#|----0--0----0--0----0--0-----0--0-----0-------|----0--0----0--0----0--0----0--0-----0-----0--|
       PM-|    PM-|    PM-|     PM-|    PM            PM-|    PM-|    PM-|    PM-|     PM   PM


D#|----------------------------------------------|-----------------------------------------|
A#|----------------------------------------------|-----------------------------------------|
F#|----------------------------------------------|-----------------------------------------|
C#|----------------------------------------------|-----------------------------------------|
G#|----------------------------------------------|-----------------------------------------|
D#|--7-------5-------7-------12-------10----9-10-|--7-------5-------7----7-----------------|
A#|----0--0----0--0----0--0-----0--0-----0-------|----0--0----0--0----0--5-----------------|
       PM-|    PM-|    PM-|     PM-|    PM            PM-|    PM-|    PM


[Chorus]

Both Gtrs

D#|-----------------------------------|------------------------------------|
A#|-----------------------------------|------------------------------------|
F#|-----------------------------------|------------------------------------|
C#|-----------------------------------|------------------------------------|
G#|-----------------------------------|------------------------------------|
D#|--------------------/10--9--7--9~--|---------------------------10--12~--|
A#|--0--10--12~--0--0-----------------|--0--10--12~--0--0--/8--7-----------|
                 PM-|                                PM-|

D#|-----------------------------------|---------------------------------|
A#|-----------------------------------|---------------------------------|
F#|-----------------------------------|---------------------------------|
C#|-----------------------------------|---------------------------------|
G#|-----------------------------------|---------------------------------|
D#|--------------------/10--9--7--9~--|--------------------10--9--7--9--|
A#|--0--10--12~--0--0-----------------|--0--10--12~--0--0---8--7--5--7--|
                 PM-|                                PM-|

D#|-----------------------------------|----------------------------------|
A#|-----------------------------------|----------------------------------|
F#|-----------------------------------|----------------------------------|
C#|-----------------------------------|----------------------------------|
G#|-----------------------------------|----------------------------------|
D#|--------------------/10--9--7--9~--|--------------------10--12--------|
A#|--0--10--12~--0--0-----------------|--0--10--12~--0--0----------7--8~-|
                 PM-|                                PM-|

D#|-----------------------------------|----------------------------------|
A#|-----------------------------------|----------------------------------|
F#|-----------------------------------|----------------------------------|
C#|-----------------------------------|----------------------------------|
G#|-----------------------------------|----------------------------------|
D#|--------------------/10--9--7--9~--|--------------------10--9--10-----|
A#|--0--10--12~--0--0-----------------|--0--10--12~--0--0---8--7---8-----|
                 PM-|                                PM-|

[Intro]

Gtr 1

D#|-----------14-14-14-------------------------------|--------------------------------------------------|
A#|--12-12-12----------15-15-14-14-14-15-15-15-17-17-|--12-12-12-12-12-12-12-12-12-12-12-12-12-12-12-12-|
F#|--------------------------------------------------|--------------------------------------------------|
C#|--------------------------------------------------|--------------------------------------------------|
G#|--------------------------------------------------|--------------------------------------------------|
D#|--------------------------------------------------|--------------------------------------------------|
A#|--------------------------------------------------|--------------------------------------------------|

D#|-----------14-14-14-------------------------------|--------------------------------------------------|
A#|--12-12-12----------15-15-14-14-14-15-15-15-17-17-|--14-14-14-14-14-14-14-14-15-15-15-15-17-17-17-17-|
F#|--------------------------------------------------|--------------------------------------------------|
C#|--------------------------------------------------|--------------------------------------------------| x 3
G#|--------------------------------------------------|--------------------------------------------------|
D#|--------------------------------------------------|--------------------------------------------------|
A#|--------------------------------------------------|--------------------------------------------------|

Gtr 2

D#|----------------------------------|----------------------------------|
A#|----------------------------------|----------------------------------|
F#|----------------------------------|----------------------------------|
C#|--5-5-5-5-5-5-5-5-5-5-5-5-5-5-5-5-|--9-9-9-9-9-9-9-9-9-9-9-9-9-9-9-9-|
G#|--5-5-5-5-5-5-5-5-5-5-5-5-5-5-5-5-|--9-9-9-9-9-9-9-9-9-9-9-9-9-9-9-9-|
D#|--3-3-3-3-3-3-3-3-3-3-3-3-3-3-3-3-|--7-7-7-7-7-7-7-7-7-7-7-7-7-7-7-7-|
A#|----------------------------------|----------------------------------|

D#|----------------------------------|----------------------------------|
A#|----------------------------------|----------------------------------|
F#|----------------------------------|----------------------------------|
C#|----------------------------------|--7-7-7-7-7-7-7-7-7-7-7-7-7-7-7-7-|
G#|--5-5-5-5-5-5-5-5-5-5-5-5-5-5-5-5-|--7-7-7-7-7-7-7-7-7-7-7-7-7-7-7-7-|
D#|--5-5-5-5-5-5-5-5-5-5-5-5-5-5-5-5-|--5-5-5-5-5-5-5-5-5-5-5-5-5-5-5-5-|
A#|--3-3-3-3-3-3-3-3-3-3-3-3-3-3-3-3-|----------------------------------|

D#|----------------------------------|----------------------------------|
A#|----------------------------------|----------------------------------|
F#|----------------------------------|----------------------------------|
C#|--5-5-5-5-5-5-5-5-5-5-5-5-5-5-5-5-|--9-9-9-9-9-9-9-9-9-9-9-9-9-9-9-9-|
G#|--5-5-5-5-5-5-5-5-5-5-5-5-5-5-5-5-|--9-9-9-9-9-9-9-9-9-9-9-9-9-9-9-9-|
D#|--3-3-3-3-3-3-3-3-3-3-3-3-3-3-3-3-|--7-7-7-7-7-7-7-7-7-7-7-7-7-7-7-7-|
A#|----------------------------------|----------------------------------|

D#|----------------------------------|----------------------------------|
A#|----------------------------------|----------------------------------|
F#|----------------------------------|----------------------------------|
C#|----------------------------------|--7-7-7-7-7-7-7-7-4---------------|
G#|--5-5-5-5-5-5-5-5-5-5-5-5-5-5-5-5-|--7-7-7-7-7-7-7-7-4---------------|
D#|--5-5-5-5-5-5-5-5-5-5-5-5-5-5-5-5-|--5-5-5-5-5-5-5-5-2---------------|
A#|--3-3-3-3-3-3-3-3-3-3-3-3-3-3-3-3-|----------------------------------|


[Bridge]

Both Gtrs

D#|--------------------------------------------|----------------------------------------|
A#|--------------------------------------------|----------------------------------------|
F#|--------------------------------------------|----------------------------------------|
C#|--------------------------------------------|----------------------------------------|
G#|--------------------------------------------|----------------------------------------|
D#|--7-------7-------7-------7-------7-------7-|--------7-------7-------7---------------|
A#|----0--0----0--0----0--0----0--0----0--0----|--0--0----0--0----0--0----8-7~--5-7-5~--|
       PM-|    PM-|    PM-|    PM-|    PM-|       PM-|    PM-|    PM-|

D#|--------------------------------------------|----------------------------------------|
A#|--------------------------------------------|----------------------------------------|
F#|--------------------------------------------|----------------------------------------|
C#|--------------------------------------------|----------------------------------------|
G#|--------------------------------------------|----------------------------------------|
D#|--5-------5-------5-------5-------5-------5-|--------5-------5-------7---------------|
A#|----0--0----0--0----0--0----0--0----0--0----|--0--0----0--0----0--0----8-7~--5-7-5~--|
       PM-|    PM-|    PM-|    PM-|    PM-|       PM-|    PM-|    PM-|

D#|--------------------------------------------|----------------------------------------|
A#|--------------------------------------------|----------------------------------------|
F#|--------------------------------------------|----------------------------------------|
C#|--------------------------------------------|----------------------------------------|
G#|--------------------------------------------|----------------------------------------|
D#|--3-------3-------3-------3-------3-------3-|--------3-------3-------7---------------|
A#|----0--0----0--0----0--0----0--0----0--0----|--0--0----0--0----0--0----8-7~--5-7-5~--|
       PM-|    PM-|    PM-|    PM-|    PM-|       PM-|    PM-|    PM-|

D#|--------------------------------------------|----------------------------------------|
A#|--------------------------------------------|----------------------------------------|
F#|--------------------------------------------|----------------------------------------|
C#|--------------------------------------------|----------------------------------------|
G#|--------------------------------------------|----------------------------------------|
D#|--5-------5-------5-------5-------5-------5-|--------5-------5-------10--9--7--9-----|
A#|----0--0----0--0----0--0----0--0----0--0----|--0--0----0--0----0--0---8--7--5--7-----|
       PM-|    PM-|    PM-|    PM-|    PM-|       PM-|    PM-|    PM-|


[Solo 1]

Gtr 1

D#|------------------------|------------------------|------------------------|
A#|------------------------|------------------------|------------------------|
F#|------------------------|------------------------|------------------------|
C#|------------------------|------------------------|------------------------|
G#|------------------------|------------------------|------------------------|
D#|------7------/8~--------|------5------/7~--------|------3---2--5---3---2--|
A#|--5-------7-------------|--3-------5-------------|--1---------------------|

D#|-------------------------|-------------------------|
A#|-------------------------|-------------------------|
F#|-------------------------|-------------------------|
C#|-------------------------|-------------------------|
G#|-------------------------|-------------------------|
D#|-------------------------|-------------------------|
A#|--0---1---3---1---0-1-0--|--0---1---3---1---0-1-0--|

D#|------------------------|------------------------|-----------------------|
A#|------------------------|------------------------|-----------------------|
F#|------------------------|------------------------|-----------------------|
C#|------------------------|------------------------|-----------------------|
G#|------------------------|------------------------|-----------------------|
D#|------7------/8~--------|------5------/7~--------|------3---2--5---3--2--|
A#|--5-------7-------------|--3-------5-------------|--1--------------------|

D#|-------------------------|--------------------------|
A#|-------------------------|--------------------------|
F#|-------------------------|--------------------------|
C#|-------------------------|--------------------------|
G#|-------------------------|--------------------------|
D#|-------------------------|------------------2---3---|
A#|--0---1---3---1---0-1-0--|--0---1---3---1-----------|

Gtr 2

D#|--------------------------|------------------------|------------------------|
A#|--------------------------|------------------------|------------------------|
F#|--------------------------|------------------------|------5---4--7---5---4--|
C#|------9-------/10~--------|------7------/9~--------|--3---------------------|
G#|--7-------10--------------|--5-------7-------------|------------------------|
D#|--------------------------|------------------------|------------------------|
A#|--------------------------|------------------------|------------------------|

D#|-------------------------|-------------------------|
A#|-------------------------|-------------------------|
F#|-------------------------|-------------------------|
C#|-------------------------|-------------------------|
G#|--2---3---5---3---2-3-2--|--2---3---5---3---2-3-2--|
D#|-------------------------|-------------------------|
A#|-------------------------|-------------------------|

D#|--------------------------|------------------------|------------------------|
A#|--------------------------|------------------------|------------------------|
F#|--------------------------|------------------------|------5---4--7---5---4--|
C#|------9-------/10~--------|------7------/9~--------|--3---------------------|
G#|--7-------10--------------|--5-------7-------------|------------------------|
D#|--------------------------|------------------------|------------------------|
A#|--------------------------|------------------------|------------------------|

D#|-------------------------|------------------------|
A#|-------------------------|------------------------|
F#|-------------------------|------------------------|
C#|-------------------------|------------------4--5--|
G#|--2---3---5---3---2-3-2--|--2---3---5---3---------|
D#|-------------------------|------------------------|
A#|-------------------------|------------------------|



Lead Gtr

D#|---------------------------------|--------------------------------|-------------------------------|
A#|-------------13-12-13-10-13-8-13-|--7----------12-10-12-8-12-7-12-|--5----------10-8-10-7-10-5-10-|
F#|---------------------------------|--------------------------------|-------------------------------|
C#|---------------------------------|--------------------------------|-------------------------------|
G#|---------------------------------|--------------------------------|-------------------------------|
D#|---------------------------------|--------------------------------|-------------------------------|
A#|---------------------------------|--------------------------------|-------------------------------|

D#|-------------------------|-------------------------|
A#|--4PH-5---7---5---4-5-4--|--4---5---7---5---4-5-4--|
F#|-------------------------|-------------------------|
C#|-------------------------|-------------------------|
G#|-------------------------|-------------------------|
D#|-------------------------|-------------------------|
A#|-------------------------|-------------------------|

D#|---------------------------------|--------------------------------|-------------------------------|
A#|--5----------13-12-13-10-13-8-13-|--7----------12-10-12-8-12-7-12-|--5----------10-8-10-7-10-5-10-|
F#|---------------------------------|--------------------------------|-------------------------------|
C#|---------------------------------|--------------------------------|-------------------------------|
G#|---------------------------------|--------------------------------|-------------------------------|
D#|---------------------------------|--------------------------------|-------------------------------|
A#|---------------------------------|--------------------------------|-------------------------------|

D#|------------------------|------------------------|
A#|--4---5---7---5---4-5-4--|--4---5---7---5---7--8--|
F#|-------------------------|------------------------|
C#|-------------------------|------------------------|
G#|-------------------------|------------------------|
D#|-------------------------|------------------------|
A#|-------------------------|------------------------|
 
Lead Gtr 
Harmony on 2nd time

D#|----------------------------------|-----------------------------------|---------------------------------|
A#|-------------17-15-17-13-17-10-17-|--10----------15-13-15-12-15-10-15-|--8----------13-12-13-10-13-8-13-|
F#|----------------------------------|-----------------------------------|---------------------------------|
C#|----------------------------------|-----------------------------------|---------------------------------|
G#|----------------------------------|-----------------------------------|---------------------------------|
D#|----------------------------------|-----------------------------------|---------------------------------|
A#|----------------------------------|-----------------------------------|---------------------------------|

D#|-------------------------|---------------------------|
A#|--7---8---10---8---7-8-7-|--7---8---10---8---10--12--|
F#|-------------------------|---------------------------|
C#|-------------------------|---------------------------|
G#|-------------------------|---------------------------|
D#|-------------------------|---------------------------|
A#|-------------------------|---------------------------|


[Solo 2]

Gtr 1

D#|--------------------------------------------------|----------------------------------------------|
A#|--------------------------------------------------|----------------------------------------------|
F#|--------------------------------------------------|----------------------------------------------|
C#|--------------------------------------14----12-14-|----------------------------------------------|
G#|-----------11-12-------------------------11-------|-----------11-12----------------10--------10--|
D#|--0--0--0--------10-0--0--0--0--0--0--------------|--0--0--0--------10-0--0--0--0---8--0--0---8--|
A#|--------------------------------------------------|---------------------------------8---------8--|
     PM----|           PM-------------|                 PM----|           PM-------|      PM-|

                                                                     |--3--|  |--3--|
D#|--------------------------------------------------|------------------------------|
A#|--------------------------------------------------|------------------------------|
F#|--------------------------------------------------|------------------------------|
C#|--------------------------------------14----12-14-|------------------------------|
G#|-----------11-12-------------------------11-------|--10--------7--7--7--7--7--7--|
D#|--0--0--0--------10-0--0--0--0--0--0--------------|---8--------5--5--5--5--5--5--|
A#|--------------------------------------------------|------------------------------|
     PM----|           PM-------------|                           PM-------------|

D#|--------------------------------------------------|----------------------------------------------|
A#|--------------------------------------------------|----------------------------------------------|
F#|--------------------------------------------------|----------------------------------------------|
C#|--------------------------------------14----12-14-|----------------------------------------------|
G#|-----------11-12-------------------------11-------|-----------11-12----------------10--------10--|
D#|--0--0--0--------10-0--0--0--0--0--0--------------|--0--0--0--------10-0--0--0--0---8--0--0---8--|
A#|--------------------------------------------------|---------------------------------8---------8--|
     PM----|           PM-------------|                 PM----|           PM-------|      PM-|

                                                                    
D#|--------------------------------------------------|----------------------------|
A#|--------------------------------------------------|----------------------------|
F#|--------------------------------------------------|----------------------------|
C#|--------------------------------------14----12-14-|----------------------------|
G#|-----------11-12-------------------------11-------|--10------------------------|
D#|--0--0--0--------10-0--0--0--0--0--0--------------|---8--------10--9--7--9-----|
A#|--------------------------------------------------|-------------8--7--5--7-----|
     PM----|           PM-------------|


Lead Gtr

D#|-------------------------------12h-13p-12----12---------------|
A#|--------------12h-13p-12------------------15----15-13-12-13---|
F#|--14----13-14------------14-13--------------------------------|
C#|-----14-------------------------------------------------------|
G#|--------------------------------------------------------------|
D#|--------------------------------------------------------------|
A#|--------------------------------------------------------------|
     PM--------|            PM-|

D#|--------------------|
A#|--9~--10h-12-10~----|
F#|--------------------|
C#|--------------------|
G#|--------------------|
D#|--------------------|
A#|--------------------|

D#|------------------------------------|
A#|--10---12---13s~----18---17---15~---|
F#|------------------------------------|
C#|------------------------------------|
G#|------------------------------------|
D#|------------------------------------|
A#|------------------------------------|

D#|--8---10---12s~----17---15---13~----| H
A#|------------------------------------| A
F#|------------------------------------| R
C#|------------------------------------| M
G#|-------------HARMONY----------------| O
D#|-------------GUITAR-----------------| N
A#|------------------------------------| Y

D#|--20-19-17----------------------------------------|
A#|-----------18-17-15-------------------------------|
F#|--------------------17-16-17-16-14-13-------------|
C#|--------------------------------------15-14-12-10-|
G#|--------------------------------------------------|
D#|--------------------------------------------------|
A#|--------------------------------------------------|

                        |-----3----|    |-----3-----|
D#|----------------------------------------------------|
A#|---12brb-----10~----10----9-------------------------|
F#|-------------------------------10----9--------------|
C#|------------------------------------------10----9---|
G#|----------------------------------------------------|
D#|----------------------------------------------------|
A#|----------------------------------------------------|

                        |-----3----|    |-----3-----|
D#|---------------------8----7-------------------------| H
A#|-------------------------------10----9--------------| A
F#|------------------------------------------10----9---| R
C#|---12brb-----10~------------------------------------| M
G#|---------------------HARMONY------------------------| O
D#|---------------------GUITAR-------------------------| N
A#|----------------------------------------------------| Y

     |--3--|  |--3--|  |--3--|  |--3--|  |--3--|  |--3--|  |--3--|  |--3--|
D#|----------------------------------------------------------------------------|
A#|--------------------------------------------------------15-17-18-15-17-18---|
F#|--------------------------------------13-14-16-13-14-16---------------------|
C#|--------------------12-14-15-12-14-15---------------------------------------|
G#|--11-12-14-11-12-14---------------------------------------------------------|
D#|----------------------------------------------------------------------------|
A#|----------------------------------------------------------------------------|
     PM-------------------------------|

      |--3--|  |--3--|   |--3--|
D#|--16-17-19-16-17-19S-20-19-17-19-20p-19p-17-22b----22b~-----|
A#|------------------------------------------------------------|
F#|------------------------------------------------------------|
C#|------------------------------------------------------------|
G#|------------------------------------------------------------|
D#|------------------------------------------------------------|
A#|------------------------------------------------------------|

                               \0/       \1             \4
      |---3---|   |---3---|   |--3--|   |---3---|
D#|--22br----20--22--20--19--20----17--19--17--16--|--12NH-------------------|
A#|------------------------------------------------|--12NH-------------------|
F#|------------------------------------------------|-------------------------|
C#|------------------------------------------------|-------------------------|
G#|------------------------------------------------|-------------------------|
D#|------------------------------------------------|-------------------------|
A#|------------------------------------------------|-------------------------|


                               \0/       \1
      |---3---|   |---3---|   |--3--|   |---3---|
D#|--19br----17--19--17--16--17----13--16--13--12----| H
A#|--------------------------------------------------| A
F#|--------------------------------------------------| R
C#|--------------------------------------------------| M
G#|------------------HARMONY-------------------------| O
D#|------------------GUITAR--------------------------| N
A#|--------------------------------------------------| Y

[Chorus]

Both Gtrs

D#|-----------------------------------|------------------------------------|
A#|-----------------------------------|------------------------------------|
F#|-----------------------------------|------------------------------------|
C#|-----------------------------------|------------------------------------|
G#|-----------------------------------|------------------------------------|
D#|--------------------/10--9--7--9~--|---------------------------10--12~--|
A#|--0--10--12~--0--0-----------------|--0--10--12~--0--0--/8--7-----------|
                 PM-|                                PM-|

D#|-----------------------------------|---------------------------------|
A#|-----------------------------------|---------------------------------|
F#|-----------------------------------|---------------------------------|
C#|-----------------------------------|---------------------------------|
G#|-----------------------------------|---------------------------------|
D#|--------------------/10--9--7--9~--|--------------------10--9--7--9--|
A#|--0--10--12~--0--0-----------------|--0--10--12~--0--0---8--7--5--7--|
                 PM-|                                PM-|

D#|-----------------------------------|----------------------------------|
A#|-----------------------------------|----------------------------------|
F#|-----------------------------------|----------------------------------|
C#|-----------------------------------|----------------------------------|
G#|-----------------------------------|----------------------------------|
D#|--------------------/10--9--7--9~--|--------------------10--12--------|
A#|--0--10--12~--0--0-----------------|--0--10--12~--0--0----------7--8~-|
                 PM-|                                PM-|

D#|-----------------------------------|----------------------------------|
A#|-----------------------------------|----------------------------------|
F#|-----------------------------------|----------------------------------|
C#|-----------------------------------|----------------------------------|
G#|-----------------------------------|----------------------------------|
D#|--------------------/10--9--7--9~--|--------------------10--9--10-----|
A#|--0--10--12~--0--0-----------------|--0--10--12~--0--0---8--7---8-----|
                 PM-|                                PM-|

[Intro]

Gtr 1

D#|-----------14-14-14-------------------------------|--------------------------------------------------|
A#|--12-12-12----------15-15-14-14-14-15-15-15-17-17-|--12-12-12-12-12-12-12-12-12-12-12-12-12-12-12-12-|
F#|--------------------------------------------------|--------------------------------------------------|
C#|--------------------------------------------------|--------------------------------------------------|
G#|--------------------------------------------------|--------------------------------------------------|
D#|--------------------------------------------------|--------------------------------------------------|
A#|--------------------------------------------------|--------------------------------------------------|

D#|-----------14-14-14-------------------------------|--------------------------------------------------|
A#|--12-12-12----------15-15-14-14-14-15-15-15-17-17-|--14-14-14-14-14-14-14-14-15-15-15-15-17-17-17-17-|
F#|--------------------------------------------------|--------------------------------------------------|
C#|--------------------------------------------------|--------------------------------------------------| x 5
G#|--------------------------------------------------|--------------------------------------------------|
D#|--------------------------------------------------|--------------------------------------------------|
A#|--------------------------------------------------|--------------------------------------------------|

Gtr 2

D#|----------------------------------|----------------------------------|
A#|----------------------------------|----------------------------------|
F#|----------------------------------|----------------------------------|
C#|--5-5-5-5-5-5-5-5-5-5-5-5-5-5-5-5-|--9-9-9-9-9-9-9-9-9-9-9-9-9-9-9-9-|
G#|--5-5-5-5-5-5-5-5-5-5-5-5-5-5-5-5-|--9-9-9-9-9-9-9-9-9-9-9-9-9-9-9-9-|
D#|--3-3-3-3-3-3-3-3-3-3-3-3-3-3-3-3-|--7-7-7-7-7-7-7-7-7-7-7-7-7-7-7-7-|
A#|----------------------------------|----------------------------------|

D#|----------------------------------|----------------------------------|
A#|----------------------------------|----------------------------------|
F#|----------------------------------|----------------------------------|
C#|----------------------------------|--7-7-7-7-7-7-7-7-7-7-7-7-7-7-7-7-| x3
G#|--5-5-5-5-5-5-5-5-5-5-5-5-5-5-5-5-|--7-7-7-7-7-7-7-7-7-7-7-7-7-7-7-7-|
D#|--5-5-5-5-5-5-5-5-5-5-5-5-5-5-5-5-|--5-5-5-5-5-5-5-5-5-5-5-5-5-5-5-5-|
A#|--3-3-3-3-3-3-3-3-3-3-3-3-3-3-3-3-|----------------------------------|

D#|----------------------------------|----------------------------------|
A#|----------------------------------|----------------------------------|
F#|----------------------------------|----------------------------------|
C#|--5-5-5-5-5-5-5-5-5-5-5-5-5-5-5-5-|--9-9-9-9-9-9-9-9-9-9-9-9-9-9-9-9-|
G#|--5-5-5-5-5-5-5-5-5-5-5-5-5-5-5-5-|--9-9-9-9-9-9-9-9-9-9-9-9-9-9-9-9-|
D#|--3-3-3-3-3-3-3-3-3-3-3-3-3-3-3-3-|--7-7-7-7-7-7-7-7-7-7-7-7-7-7-7-7-|
A#|----------------------------------|----------------------------------|

D#|----------------------------------|----------------------------------|
A#|----------------------------------|----------------------------------|
F#|----------------------------------|----------------------------------|
C#|----------------------------------|--7-7-7-7-7-7-7-7-4---------------|
G#|--5-5-5-5-5-5-5-5-5-5-5-5-5-5-5-5-|--7-7-7-7-7-7-7-7-4---------------|
D#|--5-5-5-5-5-5-5-5-5-5-5-5-5-5-5-5-|--5-5-5-5-5-5-5-5-2---------------|
A#|--3-3-3-3-3-3-3-3-3-3-3-3-3-3-3-3-|----------------------------------|



[Outro]

Gtr 1

D#|----------------------|----------------------------|
A#|----------------------|----------------------------|
F#|----------------------|----------------------------|
C#|----------------------|----------------------------|
G#|--2-------------------|----------------10-------9--|
D#|--2-------------------|----------------------------|
A#|--0-------------------|-----------0h-8-----0h-7----|

D#|-------------------------------------------------------|
A#|-------------------------------------------------------|
F#|-------------------------------------------------------|
C#|-------------------------------------------------------|
G#|--8----8----8----8-------------------------------------|
D#|--8----8----8----8-------------------------------------|
A#|--6----6----6----6-6--6--6--6--6--6--6--6--6--6--6--6--|
                      PM-------------------------------|

D#|------------------------------------------------------------------|
A#|------------------------------------------------------------------|
F#|------------------------------------------------------------------|
C#|------------------------------------------------------------------|
G#|-------------------------------------------------------8-------7--|
D#|------------------------------------------------------------------|
A#|--6--6--6--6--6--6--6--6--6--6--6--6--6--6--6--6--0h-6----0h-5----|
     PM-------------------------------------------|

Both Gtrs

D#|----------------------------------------------|-------------------------------------------|
A#|----------------------------------------------|-------------------------------------------|
F#|----------------------------------------------|-------------------------------------------|
C#|----------------------------------------------|-------------------------------------------|
G#|-----------------------------------10-------9-|--------8---------------------10--------9--|
D#|--7-------9-------10-------7------------------|----------------10-------------------------|
A#|----0--0----0--0-----0--0----0--0-----0--0----|--0--0----0--0-----0--0--0h-8------0h-7----|
       PM-|    PM-|     PM-|    PM-|     PM-|       PM-|    PM-|     PM-|

D#|--------------------------------------------|-----------------------------------------|
A#|--------------------------------------------|-----------------------------------------|
F#|--------------------------------------------|-----------------------------------------|
C#|--------------------------------------------|-----------------------------------------| x 2
G#|----------------------------------9-------8-|--------7--------------------8--------7--|
D#|--6-------8-------9-------6-----------------|----------------9------------------------|
A#|----6--6----6--6----6--6----6--6----6--6----|--6--6----6--6----6--6--0h-6-----0h-5----|
       PM-|    PM-|    PM-|    PM-|    PM-|       PM-|    PM-|    PM-|

[Outro 2]

Gtr 1
(Let PM ring on 2nd time through)
D#|--------------------------------------------|-------------------------------------|
A#|--------------------------------------------|-------------------------------------|
F#|--------------------------------------------|-------------------------------------|
C#|--------------------------------------------|-------------------------------------|
G#|--------------------------------------------|-------------------------10-------9--|
D#|--2--2--2--2-----2--2--2--2-----2--2--2--2--|-----2--2--2--2----------------------|
A#|--0--0--0--0-----0--0--0--0-----0--0--0--0--|-----0--0--0--0-----0h-8-----0h-7----|
     PM-------------------------------------------------------|

D#|--------------------------------------------|------------------------------------|
A#|--------------------------------------------|------------------------------------|
F#|--------------------------------------------|------------------------------------|
C#|--------------------------------------------|------------------------------------| x 2
G#|--------------------------------------------|-------------------------8-------7--|
D#|--8--8--8--8-----8--8--8--8-----8--8--8--8--|-----8--8--8--8---------------------|
A#|--6--6--6--6-----6--6--6--6-----6--6--6--6--|-----6--6--6--6-----0h-6----0h-5----|
     PM-------------------------------------------------------|

Gtr 2
(Tremelo)
D#|------------------------------------------------------------------------------|
A#|------------------------------------------------------------------------------|
F#|------------------------------------------------------------------------------|
C#|----------9-9-9-9-11-11-11-11-12-12-12-12-11-11-11-11-9-9-9-9-8-8-8-8-9-9-9-9-|
G#|--9-9-9-9---------------------------------------------------------------------|
D#|------------------------------------------------------------------------------|
A#|------------------------------------------------------------------------------|

D#|------------------------------------------------------------------------------|
A#|------------------------------------------------------------------------------|
F#|------------------------------------------------------------------------------|
C#|--------------8-8-8-8---------------------------------------------------------|
G#|--10-10-10-10---------9-9-9-9-10-10-10-10-7-7-7-7-9-9-9-9-------------7-7-7-7-|
D#|----------------------------------------------------------10-10-10-10---------|
A#|------------------------------------------------------------------------------|

D#|------------------------------------------------------------------------------|
A#|------------------------------------------------------------------------------|
F#|------------------------------------------------------------------------------|
C#|----------8-8-8-8-10-10-10-10-11-11-11-11-10-10-10-10-8-8-8-8-7-7-7-7-8-8-8-8-|
G#|--8-8-8-8---------------------------------------------------------------------|
D#|------------------------------------------------------------------------------|
A#|------------------------------------------------------------------------------|

D#|------------------------------------------------------------------|
A#|------------------------------------------------------------------|
F#|------------------------------------------------------------------|
C#|----------7-7-7-7-------------------------------------------------| x 2
G#|--9-9-9-9---------8-8-8-8-9-9-9-9-6-6-6-6-8-8-8-8---------6-6-6-6-|
D#|--------------------------------------------------9-9-9-9---------|
A#|------------------------------------------------------------------|            
Submit corrections


        The Sin And The Sentence lessons Hard to play? Try these video lessons and learn fast The Sin And The Sentence lessons
        
↑ Back to top | Tablatures and chords for acoustic guitar and electric guitar, ukulele, drums are parodies/interpretations of the original songs. You may use it for private study, scholarship, research or language learning purposes only