» » »

Trivium - Dead And Gone Tabs

Artists:  A B C D E F G H I J K L M N O P Q R S T U V W X Y Z # 

Dead And Gone Tabs

(ver. 1) Click to play this song!
Trivium
 Rating:
4.4/5 (5 votes)

 Dead And Gone  lessons Tabs too difficult? Try these video lessons and learn fast
 
                Solo starts at 2:26

|---------------------------------------------12tr13---16tr17---19tr20-|
|---------------------------9tr10---12tr13-----------------------------|
|------------------9tr10-----------------------------------------------|
|--6tr7---9tr10--------------------------------------------------------|
|----------------------------------------------------------------------|
|----------------------------------------------------------------------|

|---------------------------17-19-20-19-17-----------------------------|
|--21b22----21b22~~~~~~\-------------------20-18-17-20-18-17-----------|
|------------------------------------------------------------20-19-17--|
|----------------------------------------------------------------------|
|----------------------------------------------------------------------|
|----------------------------------------------------------------------|

|----------------------------------------------------------------------|
|------------------------21-16-17-21-16-17-21-17-16-21-16-17-21-16-17--|
|--19b20-19--17--19~~~~------------------------------------------------|
|----------------------------------------------------------------------|
|----------------------------------------------------------------------|
|----------------------------------------------------------------------|

|----------------------------------------------------------------------|
|--21-17-16-21-17-16-17-21-17-16-17------------------------------------|
|-------------------------------------19b21r19b21r19~~~~\--------------|
|----------------------------------------------------------------------|
|----------------------------------------------------------------------|
|----------------------------------------------------------------------|

|----------------------------------------------------------------------|
|----------------------------------------------------------------------|
|--/14--13--14~------10--9--10-------------------9\--------------------|
|---------------------------------10--9--10------PH--------------------|
|----------------------------------------------------------------------|
|----------------------------------------------------------------------|

|----------------------------------------------------------------------|
|---------------------10-----------------------------------------------|
|--9--8--7------7--8--.----8--7------7--8------------------------------|
|--.--.--.--10--.--.-------.--.--10--.--.------------------------------|
|-----------.--------------------.-------------------------------------|
|----------------------------------------------------------------------|

|--------------------------------------------------17\-----------------|
|--------------------------------------------18-18---------------------|
|--------------------------------16-16-19-19---------------------------|
|--------------12-12-15-15/18-18---------------------------------------|
|--11-11-14-14---------------------------------------------------------|
|----------------------------------------------------------------------|
            
Submit corrections


        Dead And Gone  lessons Hard to play? Try these video lessons and learn fast Dead And Gone  lessons
        
↑ Back to top | Tablatures and chords for acoustic guitar and electric guitar, ukulele, drums are parodies/interpretations of the original songs. You may use it for private study, scholarship, research or language learning purposes only