» » »

Trivium - Capsizing The Sea Tabs

Artists:  A B C D E F G H I J K L M N O P Q R S T U V W X Y Z # 

Capsizing The Sea Tabs

(ver. 1) Click to play this song!
Trivium
 Rating:
4/5 (4 votes)

 Capsizing The Sea lessons Tabs too difficult? Try these video lessons and learn fast
 
                Band:  Trivium

Tuning: Drop C# (C#, G#, C#, F#, A#, D#)
(Tune all strings down ½ a step and then drop tune)

This is the intro track to In Waves, quite simple, just the pre solo verse
I’ve split this up into different sections, its easy enough for you to be
Able to piece together yourself :P

I’ve heard many people complain about the song In Waves beginning the song
With a Breakdown, but honestly I’d class this track as the intro to the song
In Waves, it seems fitting enough.

All of these parts are put in order of which part enters next in the sequence.
Anyway I’m sure this is all 100% correct, please rate :)

Palm Mute: PM
Pull Off:  p

This part is played on a Piano so I’ve broke it up into two sections

Part 1 (Piano)
Right Hand Notes/keys
|--------------------------------------|------------------------------------|
|--------------------------------------|------------------------------------|
|-12-------11----------------12---11---|-14-------12-------10-------9-------|
|--------------------------------------|------------------------------------|
|--------------------------------------|------------------------------------|
|--------------------------------------|------------------------------------|

Left Hand Notes/keys
|--------------------------------------|------------------------------------|
|--------------------------------------|------------------------------------|
|--------------------------------------|------------------------------------|
|--------------------------------------|------------------------------------|
|--------------------------------------|------------------------------------|
|-0------------------------------------|-8-----------------5----------------|

Right Hand Notes/keys
|--------------------------------------|-------------------13-------12------|
|--------------------------------------|------------------------------------|
|-12-------11----------------12---11---|-14-------12------------------------|
|--------------------------------------|------------------------------------|
|--------------------------------------|------------------------------------|
|--------------------------------------|------------------------------------|

Left Hand Notes/keys
|--------------------------------------|------------------------------------|
|--------------------------------------|------------------------------------|
|--------------------------------------|------------------------------------|
|--------------------------------------|------------------------------------|
|--------------------------------------|------------------------------------|
|-0------------------------------------|-8-----------------5----------------|

Part 2 (Guitar)
The Intro/Breakdown begins to be played
          PM-----------------------------------------|
|------------------------|-----------------------------|
|------------------------|-----------------------------|
|------------------------|-----------------------------|
|------------------------|-----------------------------|
|------------------------|-----------------------------|
|--15p0---0---0-0-0----0-|---0-0---0----0-0---0-0---0--|

          PM-----------------------|
|------------------------|-----------------------------|
|------------------------|-----------------------------|
|------------------------|-----------------------------|
|------------------------|-----------------------------|
|------------------------|-------------3-3-3-3-3-3-3-3-|
|--15p0---0---0-0-0----0-|---0-0---0-------------------|

          PM-----------------------------------------|
|------------------------|-----------------------------|
|------------------------|-----------------------------|
|------------------------|-----------------------------|
|------------------------|-----------------------------|
|------------------------|-----------------------------|
|--15p0---0---0-0-0----0-|---0-0---0----0-0---0-0---0--|

          PM-----------------------|
|------------------------|---------------------------|
|------------------------|---------------------------|
|------------------------|---------------------------|
|------------------------|---------------------------|
|------------------------|---------------3-3-3-3-3-3-|
|--15p0---0---0-0-0----0-|---0-0---0-----------------|

Part 3 (Guitar)
The Pre-solo Verse enters
|-------------------------------------------------|
|-------------------------------------------------|
|-12-12-12-12-11-11-11-11-11-11-11-11-12-12-11-11-|
|-------------------------------------------------|
|-10-10-10-10--9--9--9--9--9--9--9--9-10-10--9--9-|
|-------------------------------------------------|

|---------------------------------------------|
|---------------------------------------------|
|-14-14-14-14-12-12-12-12-10-10-10-10-9-9-9-9-|
|---------------------------------------------|
|-12-12-12-12-10-10-10-10--8--8--8--8-7-7-7-7-|
|---------------------------------------------|

Part 4 (Guitar)
This Part is played until the end after the Piano and other guitars stop
|-6-6p5-6-6p5-6-6p5-6-6p5-6-6p5-|
|-------------------------------|
|-------------------------------|
|-------------------------------|
|-------------------------------|
|-------------------------------|

That’s all guys, Enjoy and please rate :)
            
Submit corrections


        Capsizing The Sea lessons Hard to play? Try these video lessons and learn fast Capsizing The Sea lessons
        
↑ Back to top | Tablatures and chords for acoustic guitar and electric guitar, ukulele, drums are parodies/interpretations of the original songs. You may use it for private study, scholarship, research or language learning purposes only