» » »

Trivium - Betrayer Tabs

Artists:  A B C D E F G H I J K L M N O P Q R S T U V W X Y Z # 

Betrayer Tabs

(ver. 1) Click to play this song!
Trivium
 Rating:
4.3/5 (23 votes)

 Betrayer lessons Tabs too difficult? Try these video lessons and learn fast
 
                [Intro]
e|--------------------------------------------------|
B|--------------------------------------------------|
G|--------------------------------------------------|
D|--6--6--6--6--6--6--6--6--6--6--6--6--6--6--6--6--|
A|--------------------------------------------------|
E|--------------------------------------------------|

e|--------------------------------------------------|
B|--------------------------------------------------|
G|--------------------------------------------------|
D|--4--4--4--4--4--4--4--4--------------------------|
A|--------------------------7--7--7--7--7--7--7--7--|
E|--------------------------------------------------|

e|--------------------------------------------------|
B|--------------------------------------------------|
G|--------------------------------------------------|
D|--4--4--4--4--4--4--4--4--4--4--4--4--4--4--4--4--|
A|--------------------------------------------------|
E|--------------------------------------------------|

e|--------------------------------------------------|
B|--------------------------------------------------|
G|--------------------------------------------------|
D|--6--6--6--6--6--6--6--6--7--7--7--7--7--7--7--7--|
A|--------------------------------------------------|
E|--------------------------------------------------|

e|--------------------------------------------------|
B|--------------------------------------------------|
G|--------------------------------------------------|
D|--6--6--6--6--6--6--6--6--6--6--6--6--6--6--6--6--|
A|--------------------------------------------------|
E|--------------------------------------------------|

e|--------------------------------------------------|
B|--------------------------------------------------|
G|--------------------------------------------------|
D|--4--4--4--4--4--4--4--4--------------------------|
A|--------------------------7--7--7--7--7--7--7--7--|
E|--------------------------------------------------|

e|--------------------------------------------------|
B|--------------------------------------------------|
G|--------------------------------------------------|
D|--6--6--6--6--6--6--6--6--6--6--6--6--6--6--6--6--|
A|--------------------------------------------------|
E|--------------------------------------------------|

e|--------------------------------------------------|
B|--------------------------------------------------|
G|--------------------------4--4--4--4--4--4--4--4--|
D|--7--7--7--7--7--7--7--7--------------------------|
A|--------------------------------------------------|
E|--------------------------------------------------|

e|--------------------------------------------------|
B|--------------------------------------------------|
G|--------------------------------------------------|
D|--6--6--6--6--6--6--6--6--6--6--6--6--6--6--6--6--|
A|--------------------------------------------------|
E|--------------------------------------------------|

e|--------------------------------------------------|
B|--------------------------------------------------|
G|--------------------------------------------------|
D|--4--4--4--4--4--4--4--4--------------------------|
A|--------------------------7--7--7--7--7--7--7--7--|
E|--------------------------------------------------|

e|--------------------------------------------------|
B|--------------------------------------------------|
G|--------------------------------------------------|
D|--4--4--4--4--4--4--4--4--4--4--4--4--4--4--4--4--|
A|--------------------------------------------------|
E|--------------------------------------------------|

e|--------------------------------------------------|
B|--------------------------------------------------|
G|--------------------------------------------------|
D|--6--6--6--6--6--6--6--6--7--7--7--7--7--7--7--7--|
A|--------------------------------------------------|
E|--------------------------------------------------|

e|--------------------------------------------------|
B|--------------------------------------------------|
G|--------------------------------------------------|
D|--6--6--6--6--6--6--6--6--6--6--6--6--6--6--6--6--|
A|--------------------------------------------------|
E|--------------------------------------------------|

e|--------------------------------------------------|
B|--------------------------------------------------|
G|--------------------------------------------------|
D|--4--4--4--4--4--4--4--4--------------------------|
A|--------------------------7--7--7--7--7--7--7--7--|
E|--------------------------------------------------|

e|--------------------------------------------------|
B|--------------------------------------------------|
G|--------------------------------------------------|
D|--6--6--6--6--6--6--6--6--6--6--6--6--6--6--6--6--|
A|--------------------------------------------------|
E|--------------------------------------------------|

e|--------------------------------------------------|
B|--------------------------------------------------|
G|----6----4--------------4-------------------------|
D|--------------7----6---------7----6----4----------|
A|--------------------------------------------------|
E|--------------------------------------------------|

[Verse 1]
e|------------------------|------|------|------|------|------|------|------|
B|------------------------|------|------|------|------|------|------|------|
G|------------------------|------|------|------|------|------|------|------|
D|------------------------|------|------|------|------|------|------|------|
A|------------------------|------|------|------|------|------|------|------|
E|--0---------------------|------|------|------|------|------|------|------|

e|------------------------|------|------|------|------|------|------|------|
B|------------------------|------|------|------|------|------|------|------|
G|------------------------|------|------|------|------|------|------|------|
D|------------------------|------|------|------|------|------|------|------|
A|------------------------|------|------|------|------|------|------|------|
E|--0---------------------|------|------|------|------|------|------|------|

e|----------------------------------------|----------------------------------------|
B|----------------------------------------|----------------------------------------|
G|----------------------------------------|----------------------------------------|
D|----------------------------------------|----------------------------------------|
A|----------------------------------------|----------------------------------------|
E|------0--0----0--0----P----0--0---------|------0--0----0--0----P----0--0---------|

e|----------------------------------------|----------------------------------------|
B|----------------------------------------|----------------------------------------|
G|----------------------------------------|----------------------------------------|
D|----------------------------------------|----------------------------------------|
A|----------------------------------------|----------------------------------------|
E|------3--3----3--3----P----3--3---------|------3--3----3--3----P----3--3---------|

e|----------------------------------------|----------------------------------------|
B|----------------------------------------|----------------------------------------|
G|----------------------------------------|----------------------------------------|
D|----------------------------------------|----------------------------------------|
A|----------------------------------------|----------------------------------------|
E|------7--7----7--7----P----7--7---------|------7--7----7--7----P----7--7---------|

e|----------------------------------------|----------------------------------------|
B|----------------------------------------|----------------------------------------|
G|----------------------------------------|----------------------------------------|
D|----------------------------------------|----------------------------------------|
A|----------------------------------------|----5---5---5---5----4---4---4---4------|
E|------5--5----5--5----P----5--5---------|----------------------------------------|

e|----------------------------------------|----------------------------------------|
B|----------------------------------------|----------------------------------------|
G|----------------------------------------|----------------------------------------|
D|----------------------------------------|----------------------------------------|
A|----------------------------------------|----------------------------------------|
E|------0--0----0--0----P----0--0---------|------0--0----0--0----P----0--0---------|

e|----------------------------------------|----------------------------------------|
B|----------------------------------------|----------------------------------------|
G|----------------------------------------|----------------------------------------|
D|----------------------------------------|----------------------------------------|
A|----------------------------------------|----------------------------------------|
E|------3--3----3--3----P----3--3---------|------3--3----3--3----P----3--3---------|

e|----------------------------------------|----------------------------------------|
B|----------------------------------------|----------------------------------------|
G|----------------------------------------|----------------------------------------|
D|----------------------------------------|----------------------------------------|
A|----------------------------------------|----------------------------------------|
E|------7--7----7--7----P----7--7---------|------7--7----7--7----P----7--7---------|

e|----------------------------------------|----------------------------------------|
B|----------------------------------------|----------------------------------------|
G|----------------------------------------|----------------------------------------|
D|----------------------------------------|----------------------------------------|
A|----------------------------------------|----5---5---5---5----4---4---4---4------|
E|------5--5----5--5----P----5--5---------|----------------------------------------|

[Pre-Chorus 1]
e|----------------------------------------|----------------------------------------|
B|----------------------------------------|----------------------------------------|
G|----------------------------------------|-------------2--------------------------|
D|-----4------------4-----------4---------|-----5---------------5-------4/5\4------|
A|----------------------------------------|----------------------------------------|
E|----------2---2-------2---2-------2-----|---------2-------2-------2--------------|

e|----------------------------------------|----------------------------------------|
B|----------------------------------------|----------------------------------------|
G|----------------------------------------|-------------2--------------------------|
D|-----4------------4-----------4---------|-----5---------------5-------4/5\4------|
A|----------------------------------------|----------------------------------------|
E|----------2---2-------2---2-------2-----|---------2-------2-------2--------------|

e|----------------------------------------|----------------------------------------|
B|----------------------------------------|----------------------------------------|
G|----------------------------------------|----------------------------------------|
D|-----2-----------4-----------5----------|----------------------------------------|
A|----------------------------------------|----------------------------------------|
E|---------3---3-------3---3-------3------|-----5----------------------------------|

[Chorus 1]
e|------------------|------------------|------------------|------------------|
B|------------------|------------------|------------------|------------------|
G|------------------|------------------|------------------|------------------|
D|--4---------------|------------------|------------------|------------------|
A|--2---------------|------------------|------------------|------------------|
E|------------------|------------------|------------------|------------------|

e|------------------|------------------|------------------|------------------|
B|------------------|------------------|------------------|------------------|
G|------------------|------------------|------------------|------------------|
D|--7---------------|------------------|--4---------------|------------------|
A|--5---------------|------------------|--2---------------|------------------|
E|------------------|------------------|------------------|------------------|

e|------------------|------------------|------------------|------------------|
B|------------------|------------------|------------------|------------------|
G|------------------|------------------|------------------|------------------|
D|--4---------------|------------------|------------------|------------------|
A|--2---------------|------------------|------------------|------------------|
E|------------------|------------------|------------------|------------------|

e|------------------|------------------|------------------|------------------|
B|------------------|------------------|------------------|------------------|
G|------------------|------------------|------------------|------------------|
D|--7---------------|------------------|--4---------------|------------------|
A|--5---------------|------------------|--2---------------|------------------|
E|------------------|------------------|------------------|------------------|

e|------------------|------------------|------------------|------------------|
B|------------------|------------------|------------------|------------------|
G|------------------|------------------|------------------|------------------|
D|--7---------------|------------------|------------------|------------------|
A|--5---------------|------------------|------------------|------------------|
E|------------------|------------------|------------------|------------------|

e|------------------|------------------|------------------|------------------|
B|------------------|------------------|------------------|------------------|
G|------------------|------------------|------------------|------------------|
D|--10--------------|------------------|--7---------------|------------------|
A|---8--------------|------------------|--5---------------|------------------|
E|------------------|------------------|------------------|------------------|

e|------------------|------------------|------------------|------------------|
B|------------------|------------------|------------------|------------------|
G|------------------|------------------|------------------|------------------|
D|--7---------------|------------------|------------------|------------------|
A|--5---------------|------------------|------------------|------------------|
E|------------------|------------------|------------------|------------------|

e|------------------|------------------|-------------------------------------|
B|------------------|------------------|-------------------------------------|
G|------------------|------------------|-------------------------------------|
D|--10--------------|--10--------------|--------7------5------5------5-------|
A|---8--------------|---7--------------|--------5------3------2------3-------|
E|------------------|------------------|-------------------------------------|

[Solo 1]
e|----------------------------------------|----------------------------------------|
B|----------------------------------------|----------------------------------------|
G|----------------------------------------|----------------------------------------|
D|-----4------------5-----------2---------|---------4-----------4------------------|
A|----------2---2-------2---2-------2-----|-----2-------2---2-------2---2--2--2----|
E|----------------------------------------|----------------------------------------|

e|----------------------------------------|----------------------------------------|
B|---------------------------9--------9---|-----------------------------6—------6--|
G|---------------------------7--------7---|-----------------------------4-------4--|
D|---5---5---5---5---5---5---5--------5---|-----2---2---2---2---2---2---2-------2--|
A|----------------------------------------|----------------------------------------|
E|----------------------------------------|----------------------------------------|

e|----------------------------------------|----------------------------------------|
B|----------------------------------------|----------------------------------------|
G|----------------------------------------|----------------------------------------|
D|-----4------------5-----------2---------|---------4-----------4------------------|
A|----------2---2-------2---2-------2-----|-----2-------2---2-------2---2--2--2----|
E|----------------------------------------|----------------------------------------|

e|----------------------------------------|----------------------------------------|
B|---------------------------9--------9---|-----------------------------6—---------|
G|---------------------------7--------7---|-----------------------------4----------|
D|---5---5---5---5---5---5---5--------5---|-----2---2---2---2---2---2---2----------|
A|----------------------------------------|----------------------------------------|
E|----------------------------------------|----------------------------------------|

[Interlude]
e|--------------------------------------------------|
B|--------------------------------------------------|
G|--------------------------4--4--4--4--4--4--4--4--|
D|--7--7--7--7--7--7--7--7--------------------------|
A|--------------------------------------------------|
E|--------------------------------------------------|

e|--------------------------------------------------|
B|--------------------------------------------------|
G|--------------------------------------------------|
D|--6--6--6--6--6--6--6--6--6--6--6--6--6--6--6--6--|
A|--------------------------------------------------|
E|--------------------------------------------------|

e|--------------------------------------------------|
B|--------------------------------------------------|
G|--------------------------------------------------|
D|--4--4--4--4--4--4--4--4--------------------------|
A|--------------------------7--7--7--7--7--7--7--7--|
E|--------------------------------------------------|

e|--------------------------------------------------|
B|--------------------------------------------------|
G|--------------------------------------------------|
D|--4--4--4--4--4--4--4--4--4--4--4--4--4--4--4--4--|
A|--------------------------------------------------|
E|--------------------------------------------------|

e|--------------------------------------------------|
B|--------------------------------------------------|
G|--------------------------------------------------|
D|--6--6--6--6--6--6--6--6--7--7--7--7--7--7--7--7--|
A|--------------------------------------------------|
E|--------------------------------------------------|

e|--------------------------------------------------|
B|--------------------------------------------------|
G|--------------------------------------------------|
D|--6--6--6--6--6--6--6--6--6--6--6--6--6--6--6--6--|
A|--------------------------------------------------|
E|--------------------------------------------------|

e|--------------------------------------------------|
B|--------------------------------------------------|
G|--------------------------------------------------|
D|--4--4--4--4--4--4--4--4--------------------------|
A|--------------------------7--7--7--7--7--7--7--7--|
E|--------------------------------------------------|

e|--------------------------------------------------|
B|--------------------------------------------------|
G|--------------------------------------------------|
D|--6--6--6--6--6--6--6--6--6--6--6--6--6--6--6--6--|
A|--------------------------------------------------|
E|--------------------------------------------------|

e|--------------------------------------------------|
B|--------------------------------------------------|
G|--------------------------4--4--4--4--4--4--4--4--|
D|--7--7--7--7--7--7--7--7--------------------------|
A|--------------------------------------------------|
E|--------------------------------------------------|

e|--------------------------------------------------|
B|--------------------------------------------------|
G|--------------------------------------------------|
D|--6--6--6--6--6--6--6--6--6--6--6--6--6--6--6--6--|
A|--------------------------------------------------|
E|--------------------------------------------------|

e|--------------------------------------------------|
B|--------------------------------------------------|
G|--------------------------------------------------|
D|--4--4--4--4--4--4--4--4--------------------------|
A|--------------------------7--7--7--7--7--7--7--7--|
E|--------------------------------------------------|

e|--------------------------------------------------|
B|--------------------------------------------------|
G|--------------------------------------------------|
D|--4--4--4--4--4--4--4--4--4--4--4--4--4--4--4--4--|
A|--------------------------------------------------|
E|--------------------------------------------------|

e|--------------------------------------------------|
B|--------------------------------------------------|
G|--------------------------------------------------|
D|--6--6--6--6--6--6--6--6--7--7--7--7--7--7--7--7--|
A|--------------------------------------------------|
E|--------------------------------------------------|

e|--------------------------------------------------|
B|--------------------------------------------------|
G|--------------------------------------------------|
D|--6--6--6--6--6--6--6--6--6--6--6--6--6--6--6--6--|
A|--------------------------------------------------|
E|--------------------------------------------------|

e|--------------------------------------------------|
B|--------------------------------------------------|
G|--------------------------------------------------|
D|--4--4--4--4--4--4--4--4--------------------------|
A|--------------------------7--7--7--7--7--7--7--7--|
E|--------------------------------------------------|

e|--------------------------------------------------|
B|--------------------------------------------------|
G|--------------------------------------------------|
D|--6--6--6--6--6--6--6--6--6--6--6--6--6--6--6--6--|
A|--------------------------------------------------|
E|--------------------------------------------------|

[Verse 2]
e|------------------------|------|------|------|------|------|------|------|
B|------------------------|------|------|------|------|------|------|------|
G|------------------------|------|------|------|------|------|------|------|
D|------------------------|------|------|------|------|------|------|------|
A|------------------------|------|------|------|------|------|------|------|
E|--0---------------------|------|------|------|------|------|------|------|

e|------------------------|------|------|------|------|------|------|------|
B|------------------------|------|------|------|------|------|------|------|
G|------------------------|------|------|------|------|------|------|------|
D|------------------------|------|------|------|------|------|------|------|
A|------------------------|------|------|------|------|------|------|------|
E|--0---------------------|------|------|------|------|------|------|------|

e|--------------------------|
B|--------------------------|
G|--------------------------|
D|-----7----------------6---|
A|-----5----------------4---|
E|--------------------------|

 [Pre-Chorus]
e|----------------------------------------|----------------------------------------|
B|----------------------------------------|----------------------------------------|
G|----------------------------------------|-------------2--------------------------|
D|-----4------------4-----------4---------|-----5---------------5-------4/5\4------|
A|----------------------------------------|----------------------------------------|
E|----------2---2-------2---2-------2-----|---------2-------2-------2--------------|

e|----------------------------------------|----------------------------------------|
B|----------------------------------------|----------------------------------------|
G|----------------------------------------|-------------2--------------------------|
D|-----2------------2-----------2---------|-----5---------------5-------2----------|
A|----------------------------------------|----------------------------------------|
E|----------3---3-------3---3-------3-----|---------3-------3-------3-------3------|

e|----------------------------------------|----------------------------------------|
B|----------------------------------------|----------------------------------------|
G|----------------------------------------|-------------2--------------------------|
D|-----4------------4-----------4---------|-----5---------------5-------4/5\4------|
A|----------------------------------------|----------------------------------------|
E|----------2---2-------2---2-------2-----|---------2-------2-------2--------------|

e|----------------------------------------|----------------------------------------|
B|----------------------------------------|----------------------------------------|
G|----------------------------------------|----------------------------------------|
D|-----2-----------4-----------5----------|----------------------------------------|
A|----------------------------------------|----------------------------------------|
E|---------3---3-------3---3-------3------|-----5----------------------------------|

[Chorus 2]
e|------------------|------------------|------------------|------------------|
B|------------------|------------------|------------------|------------------|
G|------------------|------------------|------------------|------------------|
D|--4---------------|------------------|------------------|------------------|
A|--2---------------|------------------|------------------|------------------|
E|------------------|------------------|------------------|------------------|

e|------------------|------------------|------------------|------------------|
B|------------------|------------------|------------------|------------------|
G|------------------|------------------|------------------|------------------|
D|--7---------------|------------------|--4---------------|------------------|
A|--5---------------|------------------|--2---------------|------------------|
E|------------------|------------------|------------------|------------------|

e|------------------|------------------|------------------|------------------|
B|------------------|------------------|------------------|------------------|
G|------------------|------------------|------------------|------------------|
D|--4---------------|------------------|------------------|------------------|
A|--2---------------|------------------|------------------|------------------|
E|------------------|------------------|------------------|------------------|

e|------------------|------------------|------------------|------------------|
B|------------------|------------------|------------------|------------------|
G|------------------|------------------|------------------|------------------|
D|--7---------------|------------------|--4---------------|------------------|
A|--5---------------|------------------|--2---------------|------------------|
E|------------------|------------------|------------------|------------------|

e|------------------|------------------|------------------|------------------|
B|------------------|------------------|------------------|------------------|
G|------------------|------------------|------------------|------------------|
D|--7---------------|------------------|------------------|------------------|
A|--5---------------|------------------|------------------|------------------|
E|------------------|------------------|------------------|------------------|

e|------------------|------------------|------------------|------------------|
B|------------------|------------------|------------------|------------------|
G|------------------|------------------|------------------|------------------|
D|--10--------------|------------------|--7---------------|------------------|
A|---8--------------|------------------|--5---------------|------------------|
E|------------------|------------------|------------------|------------------|

e|------------------|------------------|------------------|------------------|
B|------------------|------------------|------------------|------------------|
G|------------------|------------------|------------------|------------------|
D|--7---------------|------------------|------------------|------------------|
A|--5---------------|------------------|------------------|------------------|
E|------------------|------------------|------------------|------------------|

e|------------------|------------------|-------------------------------------|
B|------------------|------------------|-------------------------------------|
G|------------------|------------------|-------------------------------------|
D|--10--------------|--10--------------|--------7------5------5------5-------|
A|---8--------------|---7--------------|--------5------3------2------3-------|
E|------------------|------------------|-------------------------------------|

[Solo]
e|----------------------------------------|----------------------------------------|
B|----------------------------------------|----------------------------------------|
G|----------------------------------------|----------------------------------------|
D|-----4------------5-----------2---------|---------4-----------4------------------|
A|----------2---2-------2---2-------2-----|-----2-------2---2-------2---2--2--2----|
E|----------------------------------------|----------------------------------------|

e|----------------------------------------|----------------------------------------|
B|---------------------------9--------9---|-----------------------------6—------6--|
G|---------------------------7--------7---|-----------------------------4-------4--|
D|---5---5---5---5---5---5---5--------5---|-----2---2---2---2---2---2---2-------2--|
A|----------------------------------------|----------------------------------------|
E|----------------------------------------|----------------------------------------|

e|----------------------------------------|----------------------------------------|
B|----------------------------------------|----------------------------------------|
G|----------------------------------------|----------------------------------------|
D|-----4------------5-----------2---------|---------4-----------4------------------|
A|----------2---2-------2---2-------2-----|-----2-------2---2-------2---2--2--2----|
E|----------------------------------------|----------------------------------------|

e|----------------------------------------|----------------------------------------|
B|---------------------------9--------9---|-----------------------------6—---------|
G|---------------------------7--------7---|-----------------------------4----------|
D|---5---5---5---5---5---5---5--------5---|-----2---2---2---2---2---2---2----------|
A|----------------------------------------|----------------------------------------|
E|----------------------------------------|----------------------------------------|

e|----------------------------------------|
B|----------------------------------------|
G|-----7-----------9-----------10---0-----|
D|---------0---0-------0---0--------------|
A|----------------------------------------|
E|----------------------------------------|

e|----------------------------------------|----------------------------------------|
B|-------9-----------7--------------------|-----------------------12--------12-----|
G|---------------------------10-----------|-----------------------10--------10-----|
D|---0-------0---0-------0--------0-------|-----8--8--8--8--8--8---8---------8-----|
A|----------------------------------------|----------------------------------------|
E|----------------------------------------|----------------------------------------|

e|----------------------------------------|----------------------------------------|
B|-----------------------9--------9-------|----------------------------------------|
G|-----------------------7--------7-------|-----7-----------9-----------10---------|
D|-----5--5--5--5--5--5--5--------5-------|---------0---0-------0---0--------0-----|
A|----------------------------------------|----------------------------------------|
E|----------------------------------------|----------------------------------------|

e|----------------------------------------|----------------------------------------|
B|---------10-----------9-----------------|-----------------------12--------12-----|
G|------------------------------10--------|-----------------------10--------10-----|
D|-----0--------0---0-------0--------0----|-----8--8--8--8--8--8---8---------8-----|
A|----------------------------------------|----------------------------------------|
E|----------------------------------------|----------------------------------------|

e|----------------------------------------|
B|-----------------------9--------9-------|
G|-----------------------7--------7-------|
D|-----5--5--5--5--5--5--5--------5-------|
A|----------------------------------------|
E|----------------------------------------|

 [Bridge]
e|----------------------------------------|----------------------------------------|
B|----4---4---4---4---6---6---6---7---7---|----4---4---4---4---6---6---6---7---7---|
G|----------------------------------------|----------------------------------------|
D|----------------------------------------|----------------------------------------|
A|----------------------------------------|----------------------------------------|
E|----------------------------------------|----------------------------------------|

e|-----7---7---7---5---5---5--------------|----------------------------------------|
B|-----------------------------7----7-----|-----6---6---6---7---7---7--------------|
G|----------------------------------------|------------------------------7---7-----|
D|----------------------------------------|----------------------------------------|
A|----------------------------------------|----------------------------------------|
E|----------------------------------------|----------------------------------------|

e|----------------------------------------|-----7---7---7---5---5---5--------------|
B|----4---4---4---4---6---6---6---7---7---|-----------------------------7---7------|
G|----------------------------------------|----------------------------------------|
D|----------------------------------------|----------------------------------------|
A|----------------------------------------|----------------------------------------|
E|----------------------------------------|----------------------------------------|

e|----11--11--11--11--11--11--11--11------|----------------------------------------|
B|----------------------------------------|----4---4---4---4---6---6---6---7---7---|
G|----------------------------------------|----------------------------------------|
D|----------------------------------------|----------------------------------------|
A|----------------------------------------|----------------------------------------|
E|----------------------------------------|----------------------------------------|

e|----------------------------------------|-----7---7---7---5---5---5--------------|
B|----4---4---4---4---6---6---6---7---7---|-----------------------------7---7------|
G|----------------------------------------|----------------------------------------|
D|----------------------------------------|----------------------------------------|
A|----------------------------------------|----------------------------------------|
E|----------------------------------------|----------------------------------------|

e|----------------------------------------|----------------------------------------|
B|----6---6---6---7---7---7---------------|----4---4---4---4---6---6---6---7---7---|
G|----------------------------7----7------|----------------------------------------|
D|----------------------------------------|----------------------------------------|
A|----------------------------------------|----------------------------------------|
E|----------------------------------------|----------------------------------------|

e|----------------------------------------|-----7---7---7---5---5---5--------------|
B|----4---4---4---4---6---6---6---7---7---|-----------------------------7---7------|
G|----------------------------------------|----------------------------------------|
D|----------------------------------------|----------------------------------------|
A|----------------------------------------|----------------------------------------|
E|----------------------------------------|----------------------------------------|

e|----11--11--11--11--11--11--11--11------|----------------------------------------|
B|----------------------------------------|-----6---6---6---8---8---8---9---9------|
G|----------------------------------------|----------------------------------------|
D|----------------------------------------|----------------------------------------|
A|----------------------------------------|----------------------------------------|
E|----------------------------------------|----------------------------------------|

e|----------------------------------------|-----9---9---9---7---7---7--------------|
B|-----6---6---6---8---8---8---9---9------|-----------------------------9---9------|
G|----------------------------------------|----------------------------------------|
D|----------------------------------------|----------------------------------------|
A|----------------------------------------|----------------------------------------|
E|----------------------------------------|----------------------------------------|

e|----------------------------------------|----------------------------------------|
B|-----8---8---8---9---9------------------|-----6---6---6---8---8---8---9---9------|
G|-------------------------9---9----------|----------------------------------------|
D|----------------------------------------|----------------------------------------|
A|----------------------------------------|----------------------------------------|
E|----------------------------------------|----------------------------------------|

e|----------------------------------------|-----9---9---9---7---7---7--------------|
B|-----6---6---6---8---8---8---9---9------|-----------------------------9---9------|
G|----------------------------------------|----------------------------------------|
D|----------------------------------------|----------------------------------------|
A|----------------------------------------|----------------------------------------|
E|----------------------------------------|----------------------------------------|

e|----13--13--13--13--13--13--13--13------|----------------------------------------|
B|----------------------------------------|-----6---6---6---8---8---8---9---9------|
G|----------------------------------------|----------------------------------------|
D|----------------------------------------|----------------------------------------|
A|----------------------------------------|----------------------------------------|
E|----------------------------------------|----------------------------------------|

e|----------------------------------------|-----9---9---9---7---7---7--------------|
B|-----6---6---6---8---8---8---9---9------|-----------------------------9---9------|
G|----------------------------------------|----------------------------------------|
D|----------------------------------------|----------------------------------------|
A|----------------------------------------|----------------------------------------|
E|----------------------------------------|----------------------------------------|

e|----------------------------------------|----------------------------------------|
B|-----8---8---8---9---9------------------|-----6---6---6---8---8---8---9---9------|
G|-------------------------9---9----------|----------------------------------------|
D|----------------------------------------|----------------------------------------|
A|----------------------------------------|----------------------------------------|
E|----------------------------------------|----------------------------------------|

e|----------------------------------------|-----9---9---9---7---7---7--------------|
B|-----6---6---6---8---8---8---9---9------|-----------------------------9---9------|
G|----------------------------------------|----------------------------------------|
D|----------------------------------------|----------------------------------------|
A|----------------------------------------|----------------------------------------|
E|----------------------------------------|----------------------------------------|

e|----13--13--13--13--13--13--13--13------|
B|----------------------------------------|
G|----------------------------------------|
D|----------------------------------------|
A|----------------------------------------|
E|----------------------------------------|

[Interlude]
e|----------------------------------------|
B|-----6---4-----------4------------------|
G|-------------7---6-------7---6---4------|
D|----------------------------------------|
A|----------------------------------------|
E|----------------------------------------|

e|--------------------------------------------------|
B|--------------------------------------------------|
G|--------------------------------------------------|
D|--6--6--6--6--6--6--6--6--6--6--6--6--6--6--6--6--|
A|--------------------------------------------------|
E|--------------------------------------------------|

e|--------------------------------------------------|
B|--------------------------------------------------|
G|--------------------------------------------------|
D|--4--4--4--4--4--4--4--4--------------------------|
A|--------------------------7--7--7--7--7--7--7--7--|
E|--------------------------------------------------|

e|--------------------------------------------------|
B|--------------------------------------------------|
G|--------------------------------------------------|
D|--4--4--4--4--4--4--4--4--4--4--4--4--4--4--4--4--|
A|--------------------------------------------------|
E|--------------------------------------------------|

e|--------------------------------------------------|
B|--------------------------------------------------|
G|--------------------------------------------------|
D|--6--6--6--6--6--6--6--6--7--7--7--7--7--7--7--7--|
A|--------------------------------------------------|
E|--------------------------------------------------|

e|--------------------------------------------------|
B|--------------------------------------------------|
G|--------------------------------------------------|
D|--6--6--6--6--6--6--6--6--6--6--6--6--6--6--6--6--|
A|--------------------------------------------------|
E|--------------------------------------------------|

e|--------------------------------------------------|
B|--------------------------------------------------|
G|--------------------------------------------------|
D|--4--4--4--4--4--4--4--4--------------------------|
A|--------------------------7--7--7--7--7--7--7--7--|
E|--------------------------------------------------|

e|--------------------------------------------------|
B|--------------------------------------------------|
G|--------------------------------------------------|
D|--6--6--6--6--6--6--6--6--6--6--6--6--6--6--6--6--|
A|--------------------------------------------------|
E|--------------------------------------------------|

e|--------------------------------------------------|
B|--------------------------------------------------|
G|--------------------------4--4--4--4--4--4--4--4--|
D|--7--7--7--7--7--7--7--7--------------------------|
A|--------------------------------------------------|
E|--------------------------------------------------|

e|--------------------------------------------------|
B|--------------------------------------------------|
G|--------------------------------------------------|
D|--6--6--6--6--6--6--6--6--6--6--6--6--6--6--6--6--|
A|--------------------------------------------------|
E|--------------------------------------------------|

e|--------------------------------------------------|
B|--------------------------------------------------|
G|--------------------------------------------------|
D|--4--4--4--4--4--4--4--4--------------------------|
A|--------------------------7--7--7--7--7--7--7--7--|
E|--------------------------------------------------|

e|--------------------------------------------------|
B|--------------------------------------------------|
G|--------------------------------------------------|
D|--4--4--4--4--4--4--4--4--4--4--4--4--4--4--4--4--|
A|--------------------------------------------------|
E|--------------------------------------------------|

e|--------------------------------------------------|
B|--------------------------------------------------|
G|--------------------------------------------------|
D|--6--6--6--6--6--6--6--6--7--7--7--7--7--7--7--7--|
A|--------------------------------------------------|
E|--------------------------------------------------|

e|--------------------------------------------------|
B|--------------------------------------------------|
G|--------------------------------------------------|
D|--6--6--6--6--6--6--6--6--6--6--6--6--6--6--6--6--|
A|--------------------------------------------------|
E|--------------------------------------------------|

e|--------------------------------------------------|
B|--------------------------------------------------|
G|--------------------------------------------------|
D|--4--4--4--4--4--4--4--4--------------------------|
A|--------------------------7--7--7--7--7--7--7--7--|
E|--------------------------------------------------|

e|--------------------------------------------------|
B|--------------------------------------------------|
G|--------------------------------------------------|
D|--6--6--6--6--6--6--6--6--6--6--6--6--6--6--6--6--|
A|--------------------------------------------------|
E|--------------------------------------------------|

e|--------------------------------------------------|
B|--------------------------------------------------|
G|----6----4--------------4-------------------------|
D|--------------7----6---------7----6----4----------|
A|--------------------------------------------------|
E|--------------------------------------------------|

[Pre-Chorus 3]
e|----------------------------------------|----------------------------------------|
B|----------------------------------------|----------------------------------------|
G|----------------------------------------|-------------2--------------------------|
D|-----4------------4-----------4---------|-----5---------------5-------4/5\4------|
A|----------------------------------------|----------------------------------------|
E|----------2---2-------2---2-------2-----|---------2-------2-------2--------------|

e|----------------------------------------|----------------------------------------|
B|----------------------------------------|----------------------------------------|
G|----------------------------------------|-------------2--------------------------|
D|-----4------------4-----------4---------|-----5---------------5-------4/5\4------|
A|----------------------------------------|----------------------------------------|
E|----------2---2-------2---2-------2-----|---------2-------2-------2--------------|

e|----------------------------------------|----------------------------------------|
B|----------------------------------------|----------------------------------------|
G|----------------------------------------|----------------------------------------|
D|-----2-----------4-----------5----------|----------------------------------------|
A|----------------------------------------|----------------------------------------|
E|---------3---3-------3---3-------3------|-----5----------------------------------|

[Chorus 3]
e|------------------|------------------|------------------|------------------|
B|------------------|------------------|------------------|------------------|
G|------------------|------------------|------------------|------------------|
D|--4---------------|------------------|------------------|------------------|
A|--2---------------|------------------|------------------|------------------|
E|------------------|------------------|------------------|------------------|

e|------------------|------------------|------------------|------------------|
B|------------------|------------------|------------------|------------------|
G|------------------|------------------|------------------|------------------|
D|--7---------------|------------------|--4---------------|------------------|
A|--5---------------|------------------|--2---------------|------------------|
E|------------------|------------------|------------------|------------------|

e|------------------|------------------|------------------|------------------|
B|------------------|------------------|------------------|------------------|
G|------------------|------------------|------------------|------------------|
D|--4---------------|------------------|------------------|------------------|
A|--2---------------|------------------|------------------|------------------|
E|------------------|------------------|------------------|------------------|

e|------------------|------------------|------------------|------------------|
B|------------------|------------------|------------------|------------------|
G|------------------|------------------|------------------|------------------|
D|--7---------------|------------------|--4---------------|------------------|
A|--5---------------|------------------|--2---------------|------------------|
E|------------------|------------------|------------------|------------------|

e|------------------|------------------|------------------|------------------|
B|------------------|------------------|------------------|------------------|
G|------------------|------------------|------------------|------------------|
D|--7---------------|------------------|------------------|------------------|
A|--5---------------|------------------|------------------|------------------|
E|------------------|------------------|------------------|------------------|

e|------------------|------------------|------------------|------------------|
B|------------------|------------------|------------------|------------------|
G|------------------|------------------|------------------|------------------|
D|--10--------------|------------------|--7---------------|------------------|
A|---8--------------|------------------|--5---------------|------------------|
E|------------------|------------------|------------------|------------------|

e|------------------|------------------|------------------|------------------|
B|------------------|------------------|------------------|------------------|
G|------------------|------------------|------------------|------------------|
D|--7---------------|------------------|------------------|------------------|
A|--5---------------|------------------|------------------|------------------|
E|------------------|------------------|------------------|------------------|

e|------------------|------------------|-------------------------------------|
B|------------------|------------------|-------------------------------------|
G|------------------|------------------|-------------------------------------|
D|--10--------------|--10--------------|--------7------5------5------5-------|
A|---8--------------|---7--------------|--------5------3------2------3-------|
E|------------------|------------------|-------------------------------------|       

[Outro]
e|-----7----------------------------------|------------------8---6---5-------------|
B|--------------5------------7------------|-----5------------------------5---------|
G|----------------------------------------|----------------------------------------|
D|----------------------------------------|----------------------------------------|
A|----------------------------------------|----------------------------------------|
E|----------------------------------------|----------------------------------------|

e|----------------------------------------|-----8---8---8---6---6---6---5---5------|
B|----------------------------------------|----------------------------------------|
G|----------------------------------------|----------------------------------------|
D|----------------------------------------|----------------------------------------|
A|----------------------------------------|----------------------------------------|
E|----------------------------------------|----------------------------------------|

e|------------------|------------------|------------------|------------------|
B|--5---------------|------------------|------------------|------------------|
G|------------------|------------------|------------------|------------------|
D|------------------|------------------|------------------|------------------|
A|------------------|------------------|------------------|------------------|
E|------------------|------------------|------------------|------------------|            
Submit corrections


        Betrayer lessons Hard to play? Try these video lessons and learn fast Betrayer lessons
        
↑ Back to top | Tablatures and chords for acoustic guitar and electric guitar, ukulele, drums are parodies/interpretations of the original songs. You may use it for private study, scholarship, research or language learning purposes only