Home » T » Triggerfinger »

Triggerfinger - Aint Nobody Tabs

Artists:  A B C D E F G H I J K L M N O P Q R S T U V W X Y Z # 

Aint Nobody Tabs

(ver. 1) Click to play this song!
Triggerfinger
Intro
Dm + Riff 1 (4x)
Riff 1: 
E|-3-3----3-3----|-
B|-5-5-----------|-
G|-5-5----5-5----|-
D|--------5-5----|-
A|---------------|-
E|---------------|-

Verse (2x)
Dm-Bb (2x)
A-Bb-C-Dm

Chorus
E|--------------------|-
B|--------------------|-
G|-7---/10--/12---/14-|-
D|--------------------|-
A|-5---/8---/10---/12-|-
E|--------------------|-
Dm-C (4x)
Dm + Riff 1 (4x)

Verse
Dm-Bb (2x)
A-Bb-C-Dm

Chorus
E|--------------------|-
B|--------------------|-
G|-7---/10--/12---/14-|-
D|--------------------|-
A|-5---/8---/10---/12-|-
E|--------------------|-
Dm-C (4x)
Dm + Riff 1 (4x)

Bridge (10x)
E|---------------|-
B|---------------|-
G|-10----10\9----|-
D|---------------|-
A|-8-----8-\7----|-
E|---------------|-
Gm-C

Chorus
E|--------------------|-
B|--------------------|-
G|-7---/10--/12---/14-|-
D|--------------------|-
A|-5---/8---/10---/12-|-
E|--------------------|-
Dm-C (4x)
Dm + Riff 1 (4x)

Outro (4x)
E|--------------------|-
B|-6-6-----8-8--------|-
G|-----7-7-----7-5----|-
D|--------------------|-
A|--------------------|-
E|--------------------|-            
Submit corrections

↑ Back to top | Tablatures and chords for acoustic guitar and electric guitar, ukulele, drums are parodies/interpretations of the original songs. You may use it for private study, scholarship, research or language learning purposes only