Home » T » Trey Parker »

Trey Parker - South Park Theme Song Tabs

Artists:  A B C D E F G H I J K L M N O P Q R S T U V W X Y Z # 

South Park Theme Song Tabs

(ver. 1) Click to play this song!
Trey Parker
Intro:
e|8-8-8-8-8---x-x-x---9-------------------------------------------|
B|7-7-7-7-7---------------7---10--10-10-10---9-9-9---7\-----------|
G|---------------------------------8--8--8---7-7-7---5\-----------|
D|----------------------------------------------------------------|
A|----------------------------------------------------------------|
D|4-------0-------4-------0-------4----------0-------4------------|


I'm goin' down to South Park, gonna have myself a time
e|-------------------------------------------(3)-----(3)----------|
B|----5-------5-------5-------5-------5-------5-------5------5----|
G|----7-------7-------7-------7-------7-------7-------7------7----|
D|----------------------------------------------------------------|
A|----------------------------------------------------------------|
D|4-------0-------4-------0-------4-------0-------4-------4-------|

Friendly faces everywhere, humble folks without temptation.
e|--------------------------------------------------------------------|
B|/10--10--10------/13--13--13-----\10--10--10------/13--13--13-------|
G|/-8---8---8------/11--11--11-----\-8---8---8------/11--11--11-------|
D|--------------------------------------------------------------------|
A|--------------------------------------------------------------------|
D|--7-------7-------10------10-------7-------7-------10--10--10--7----|

I'm goin' down to South Park, gonna leave my woes behind.
e|----------------------------------------------------------------|
B|----5-------5-------5-------5-------5-------5-------5------5----|
G|----7-------7-------7-------7-------7-------7-------7------7----|
D|----------------------------------------------------------------|
A|----------------------------------------------------------------|
D|4-------0-------4-------0-------4-------0-------4-------4-------|

Ample parking day or night, people spouting: "Howdy, neighbor!"
e|--------------------------------------------------------------------|
B|/10--10--10------/13--13--13-----\10--10--10------/13--13--13-------|
G|/-8---8---8------/11--11--11-----\-8---8---8------/11--11--11-------|
D|--------------------------------------------------------------------|
A|--------------------------------------------------------------------|
D|--7-------7-------10------10-------7-------7-------10------7\-------|

I'm headin' down to South Park, gonna see if I can't unwind.
e|x-x-x-x-8---x-x-x---9-----------x-x-x-x-8---x-x-x-x-12-12-13-13-12-12-|
B|x-x-x-x-7---------------7---10--x-x-x-x-7-----------------------------|
G|----------------------------------------------------------------------|
D|----------------------------------------------------------------------|
A|----------------------------------------------------------------------|
D|4-------0-------4-------0-------4-------0-------4----------4----------|

Oootootoodoo  oootoodooodooo  dooo dooo ooohhtodooodoo.
(for example: I like girls with big fat titties, I like girls with deep vaginas!)
e|11--11--11--11--/14--14--14-----\11--11--11------/14--14--14--------|
B|10--10--10--10--/13--13--13-----\10--10--10------/13--13--13--------|
G|--------------------------------------------------------------------|
D|--------------------------------------------------------------------|
A|--------------------------------------------------------------------|
D|-7-------7-------10------10-------7-------7-------10------10--------|

So come on out to South Park, and meet some friends of mine.
e|x-x-x-x-8---x-x-x---9-----------8-8-8---8-8-8---8---Fart-----|
B|x-x-x-x-7---------------7---10--7-7-7---7-7-7---7---Fart-----|
G|-------------------------------------------------------------|
D|-------------------------------------------------------------|
A|-------------------------------------------------------------|
D|4-------0-------4-------0-------4-------0-------4------------|            
Submit corrections

↑ Back to top | Tablatures and chords for acoustic guitar and electric guitar, ukulele, drums are parodies/interpretations of the original songs. You may use it for private study, scholarship, research or language learning purposes only