Home » T » Trevor Hall »

Trevor Hall - Still Water Tabs

Artists:  A B C D E F G H I J K L M N O P Q R S T U V W X Y Z # 

Still Water Tabs

(ver. 1) Click to play this song!
Trevor Hall
Tuning:Standard (EADGBe)

e|---------------------------------------------------------------------------|
B|---------------------------------------------------------------------------|
G|----2--2-----2--2-----2--2-----2---2---------------------------------------|
D|---0--0--0--0--0--0--0--0--0--0-0-0-0--------------------------------------|
A|-----------0--0--0--2--2--2--2---0-----------------------------------------|
E|--3--3--3------------------------------------------------------------------|

In the 2nd "Can a knife cut" he adds some higher notes

e|-----------0--------2------------------------------------------------------|
B|--3------------------------------------------------------------------------|
G|----2--2-----2--2-----2--2-----2---2---------------------------------------|
D|---0--0--0--0--0--0--0--0--0--0-0-0-0--------------------------------------|
A|-----------0--0--0--2--2--2--2---0-----------------------------------------|
E|--3--3--3------------------------------------------------------------------|            
Submit corrections

↑ Back to top | Tablatures and chords for acoustic guitar and electric guitar, ukulele, drums are parodies/interpretations of the original songs. You may use it for private study, scholarship, research or language learning purposes only