» » »

Trevor Hall - Parachutes Tabs

Artists:  A B C D E F G H I J K L M N O P Q R S T U V W X Y Z # 

Parachutes Tabs

(ver. 1) Click to play this song!
Trevor Hall
 Rating:
4/5 (4 votes)

 Parachutes lessons Tabs too difficult? Try these video lessons and learn fast
 
                -------------------------------------------------------------------------------
                             PARACHUTES- Trevor Hall
-------------------------------------------------------------------------------

Tuning: Standard

Intro/ Verse:
e|----------0-------------------0----------|
B|--1----------1---1------1-------1---1----|
G|----2----------2----------2-------2------|
D|-3-----3--------------------3------------|
A|-----------------------------------------|
E|-----------------------------------------|

e|-----------0------------------0---------|
B|----1---------1---1-----1-------1---1---|
G|------2---------2---------2-------2-----|
D|--------2-------------------2-----------|
A|--0-------------------------------------|
E|----------------------------------------|

e|----------0------------------0---3-----|
B|---1--------1---1-----1--------1-------|
G|-----2--------2---------2--------------|
D|-3-----3------------------3------------|
A|---------------------------------------|
E|---------------------------------------|

e|-----------0------------------0-------------|
B|----1---------1---1-----1-------1---1-------|
G|------2---------2---------2-------2---------|
D|--------2-------------------2---------------|
A|--0-----------------------------------------|
E|--------------------------------------------|

Verse 1:
Kids are insane, sick in the brain
Liking the same wounds, we sit with the same moon above us
But were different from the others, 'cause we share the same pain
It's mutual, it's beautiful

And all of our tears, and all of our fears
They all come in one form, but yet we think we're from a different storm
There ain't no question how, we've got to realize now
That it's mutual, it's beautiful

Chorus:
        C                                               G
So how long will we continue to ride this sunken ship
     Am                                                       Fmaj7
'Cause I believe, yes I believe, that we can find the surface
         C                                              G
And even though it seems like, this airplane is going down
    Am                                                             Fmaj7
Don't be afraid it will all be ok, you see there's plenty of parachutes to go around
    C                 G                 Am         Fmaj7
Parachutes, parachutes parachutes

Verse 2:
See for whatever it's worth, I never left earth
I choked on my own blood, alone with my own gun
Surrounded by no one

And now that I'm gone, I still sing my song
To try to keep the children away from all the killing
To show them a new mission
Trying to keep some peace in their hearts

Chorus:
        C                                               G
So how long will we continue to ride this sunken ship
     Am                                                       Fmaj7
'Cause I believe, yes I believe, that we can find the surface
         C                                              G
And even though it seems like, this airplane is going down
    Am                                                             Fmaj7
Don't be afraid it will all be ok, you see there's plenty of parachutes to go around
    C                 G                 Am         Fmaj7
Parachutes, parachutes parachutes

        C
e|---------------------|
B|-------1-------------|
G|-----2---------------|
D|---------------------|
A|--3------------------|
E|---------------------|
*Let Ring

************************************

| /   slide up
| \   slide down
| h   hammer-on
| p   pull-off
| ~   vibrato
| +   harmonic
| x   Mute note
| b   Bend
| pb  Pre-bend
| br  Bend release
| pbr Pre-bend release
| brb Bend release bend

************************************
            
Submit corrections


        Parachutes lessons Hard to play? Try these video lessons and learn fast Parachutes lessons
        
↑ Back to top | Tablatures and chords for acoustic guitar and electric guitar, ukulele, drums are parodies/interpretations of the original songs. You may use it for private study, scholarship, research or language learning purposes only