» » »

Trevor Hall - Bharat Tabs

Artists:  A B C D E F G H I J K L M N O P Q R S T U V W X Y Z # 

Bharat Tabs

(ver. 1) Click to play this song!
Trevor Hall
 Rating:
4.2/5 (5 votes)

 Bharat lessons Tabs too difficult? Try these video lessons and learn fast
 
                -------------------------------------------------------------------------------
-------------------------------------------------------------------------------

Tuning: Standard

Whole Song
Pluck but you can strum
e|--------------(2-(3-(2)------------------------------------------------------------|
B|---3---3---3---3--3--3-------------------------------------------------------------|
G|---0---0---2---2--2--2-------------------------------------------------------------|
D|-----------0-----------------------------------------------------------------------|
A|-------2---------------------------------------------------------------------------|
E|---3-----------2--3--2-------------------------------------------------------------|

1:53
e|--10-12-9-10-12-7-5-10--------------------------------------------------------------|
B|------------------------------------------------------------------------------------|
G|------------------------------------------------------------------------------------|
D|------------------------------------------------------------------------------------|
A|------------------------------------------------------------------------------------|
E|------------------------------------------------------------------------------------|
            
Submit corrections


        Bharat lessons Hard to play? Try these video lessons and learn fast Bharat lessons
        
↑ Back to top | Tablatures and chords for acoustic guitar and electric guitar, ukulele, drums are parodies/interpretations of the original songs. You may use it for private study, scholarship, research or language learning purposes only