Home » T » Tre Allegri Ragazzi Morti »

Tre Allegri Ragazzi Morti - La Qualità Tabs

Artists:  A B C D E F G H I J K L M N O P Q R S T U V W X Y Z # 

La Qualità Tabs

(ver. 1) Click to play this song!
Tre Allegri Ragazzi Morti
Tuning: standard

Intro:
-|--------------------------------------------------------------------------|-
-|--------------------------------------------------------------------------|-
-|-7---9---7---9---7---9-9-9-9---7-x-9-x-7-x-9-x-7-x-9-9-9-9----------------|-
-|-7---9---7---9---7---9-9-9-9---7-x-9-x-7-x-9-x-7-x-9-9-9-9----------------|-
-|-5---7---5---7---5---7-7-7-7---5-x-7-x-5-x-7-x-5-x-7-7-7-7----------------|-
-|--------------------------------------------------------------------------|-
                                                                              
Verse: x8
-|--------------------------------------------------------------------------|-
-|--------------------------------------------------------------------------|-
-|-x-9-9-9-9-x-x-x-10-10-10-10-x-x-x----------------------------------------|-
-|-x-9-9-9-9-x-x-x-10-10-10-10-x-x-x----------------------------------------|-
-|-x-7-7-7-7-x-x-x-8--8--8--8--x-x-x----------------------------------------|-
-|--------------------------------------------------------------------------|-
                                                                              
Interlude:
-|--------------------------------------------------------------------------|-
-|--------------------------------------------------------------------------|-
-|-7-x-9-x-7-x-9-x-7-x-9-9-9-9---7-x-9-x-7-x-9-x-7-x-9-9-9-9----------------|-
-|-7-x-9-x-7-x-9-x-7-x-9-9-9-9---7-x-9-x-7-x-9-x-7-x-9-9-9-9----------------|-
-|-5-x-7-x-5-x-7-x-5-x-7-7-7-7---5-x-7-x-5-x-7-x-5-x-7-7-7-7----------------|-
-|--------------------------------------------------------------------------|-
                                                                              
Verse: x8
-|--------------------------------------------------------------------------|-
-|--------------------------------------------------------------------------|-
-|-x-9-9-9-9-x-x-x-10-10-10-10-x-x-x----------------------------------------|-
-|-x-9-9-9-9-x-x-x-10-10-10-10-x-x-x----------------------------------------|-
-|-x-7-7-7-7-x-x-x-8--8--8--8--x-x-x----------------------------------------|-
-|--------------------------------------------------------------------------|-

End with this
-|--------------------------------------------------------------------------|-
-|--------------------------------------------------------------------------|-
-|-x-9-9-9-9----------------------------------------------------------------|-
-|-x-9-9-9-9----------------------------------------------------------------|-
-|-x-7-7-7-7----------------------------------------------------------------|-
-|--------------------------------------------------------------------------|-

Tablature Keys:

h - hammer on
p - pull off
b - bend
r - relese bend
/ - slide up
\ - slide down
v - vibrato
* - trill
x - mute string
pm - palm mute
x\\\ - pick scr*pe (direction same as slide)
            
Submit corrections

↑ Back to top | Tablatures and chords for acoustic guitar and electric guitar, ukulele, drums are parodies/interpretations of the original songs. You may use it for private study, scholarship, research or language learning purposes only