Home » T » Traffic »

Traffic - Low Spark Bass

Artists:  A B C D E F G H I J K L M N O P Q R S T U V W X Y Z # 

Low Spark Bass

(ver. 1) Click to play this song!
Traffic

   This is my first tab and I tabbed it because there were no others, so I had to figure 
out myself, its an easy tab and a really good song. The first part is right and the 
part might be a little bit off.

g)-----7-7---5--------7-7----------7-7---5----------|
d)----------7--------------7------------7-----------|
a)--5--------------5-------------5------------------|
e)--------------------------------------------------|
reapeted for most of the song...

then

g)-----9--------7-----|
d)----9--------7------|
a)--------------------|
e)--------------------|
            
Submit corrections

↑ Back to top | Tablatures and chords for acoustic guitar and electric guitar, ukulele, drums are parodies/interpretations of the original songs. You may use it for private study, scholarship, research or language learning purposes only