» » »

Traditional Irish - The Shearings Not For You Tabs

Artists:  A B C D E F G H I J K L M N O P Q R S T U V W X Y Z # 

The Shearings Not For You Tabs

(ver. 1) Click to play this song!
Traditional Irish
 Rating:
2.2/5 (25 votes)

 The Shearings Not For You  lessons Tabs too difficult? Try these video lessons and learn fast
 
                Tuning: Drop-D

e|---2-----5--0----2--------------------------0-------0--0-----2------0h2----|
B|---------------2---3------2--0--------0--------3---------0h2----3---2------|
G|--------------------------------2---------0------0--------------0----------|
D|------0----------------4-----0----------0----------------------------------|
A|------------0------2---------------------------2-------0------------0------|
E|---0-------------------------------4--5-------------5-----------2----------|

e|---3------2-3---5----7---------5----7--5-----2--0-----0------0------0------|
B|-----0--------0---2-------0------2---------2-------3-----0h2------3--------|
G|-------0----------------0---0------------2---------------------2-----------|
D|---------------------------------------------------------------------------|
A|------------------------------------------------------0--------------------|
E|---5--------5---4----5---------4----5--4--------5--------------------------|

e|-----5--0---0/2-0------------------------0-------2p0-----------------------|
B|---3------2--------3------3--0-----0---0----3-2------3---------------------|
G|------------------------4-------2----0-----------------2-------------------|
D|----------------------4----------------------------------4-----------------|
A|--------0----------2------------------------0------------------------------|
E|-----------------------------5--4--5-------------0-------0-----------------|
            
Submit corrections


        The Shearings Not For You  lessons Hard to play? Try these video lessons and learn fast The Shearings Not For You  lessons
        
↑ Back to top | Tablatures and chords for acoustic guitar and electric guitar, ukulele, drums are parodies/interpretations of the original songs. You may use it for private study, scholarship, research or language learning purposes only