Home » T » Trace Adkins »

Trace Adkins - Just Fishin' Tabs

Artists:  A B C D E F G H I J K L M N O P Q R S T U V W X Y Z # 

Just Fishin' Tabs

(ver. 1) Click to play this song!
Trace Adkins
Just Fishin' (Single)
Recorded by Trace Adkins


Intro:  B  E  Repeat 4x's
E(--2---------------------------------------------)
B(--4-----4-5-4-----------------------------------)
G(--4—4h6------4----------------------------------)
D(--4---------------------------------------------)
A(--2---------------------------------------------)
E(------------------------------------------------)



Inst.:  C#m 	 B  	 E 	 F# 	 B
E(------------------------------------------------------------)
B(----------------------------------------------------------7-)
G(-----3h4-4-4-4p3---3h4-4-4p3/6---3h4-4-4-4p3---3h4-4-4p3/6--)
D(--/4------------4----------------------------4--------------)
A(------------------------------------------------------------)
E(------------------------------------------------------------)

E(-----------------------------------------------)
B(-----------------------------------------------)
G(--3h4-4-4-4p3—-3h4-4-6b-4-6b/11----------------)
D(-------------4---------------------------------)
A(-----------------------------------------------)
E(-----------------------------------------------)

 
            
Submit corrections

↑ Back to top | Tablatures and chords for acoustic guitar and electric guitar, ukulele, drums are parodies/interpretations of the original songs. You may use it for private study, scholarship, research or language learning purposes only