Home » T » Trace Adkins »

Trace Adkins - I'm Tryin' Tabs

Artists:  A B C D E F G H I J K L M N O P Q R S T U V W X Y Z # 

I'm Tryin' Tabs

(ver. 1) Click to play this song!
Trace Adkins
Fiddle Intro Arranged for Guitar
Two Fiddles arranged for One Guitar(Actual Frets, not with capo):

e|--------8s9-11----------4h6s7-----------------8-9-11---11b(12)s16--
B|---------------9--------------5-5h7p5----------------9-------------
G|--------------------------------------3h5p3p1----------------------
D|-------------------------------------------------------------------
A|--3s4-6-----------4s6-7--------------------------------------------
E|-------------------------------------------------------------------

Intro: G Cm G Cm G

Steel Part arrange for Guitar (Actual Frets, not with capo):
   G                Cm       G                Cm        G
e|---7s8-7s8------7b8-8s11-----7s8-7s8----------------
B|-----------11-9----------------------11-9-----------
G|------------------------------------------7b8-8s13--
D|----------------------------------------------------
A|----------------------------------------------------
E|----------------------------------------------------
            
Submit corrections

↑ Back to top | Tablatures and chords for acoustic guitar and electric guitar, ukulele, drums are parodies/interpretations of the original songs. You may use it for private study, scholarship, research or language learning purposes only