» » »

T-pain - Buy You A Drink Tabs

Artists:  A B C D E F G H I J K L M N O P Q R S T U V W X Y Z # 

Buy You A Drink Tabs

(ver. 1) Click to play this song!
T-pain
 Rating:
2.7/5 (7 votes)
    Buy You A Drink lessons Tabs too difficult? Try these video lessons and learn fast
                (Intro)
-------------------------------------------------------------------------------
                             BUY YOU A DRINK - T-Pain
-------------------------------------------------------------------------------

Tuning: Standard

e|---------------------------4----------------------4--------------------4------|
B|-----666--------2-4-2-4-------666-----2-4-2-4--------666----2-4-2-4-----------|
G|------------3-----------------------3----------------------3------------------|
D|------------------------------------------------------------------------------|
A|------------------------------------------------------------------------------|
E|------------------------------------------------------------------------------|

e|--------------------------4----1----------------------------------------------|
B|----666---------2-4-2-4-------------------------------------------------------|
G|-----------3------------------------------------------------------------------|
D|------------------------------------------------------------------------------|
A|------------------------------------------------------------------------------|
E|------------------------------------------------------------------------------|

                                                "Baby girl....."
            
Submit corrections

↑ Back to top | Tablatures and chords for acoustic guitar and electric guitar, ukulele, drums are parodies/interpretations of the original songs. You may use it for private study, scholarship, research or language learning purposes only