» » »

Toy Dolls - Tommy Kowerys Car Bass

Artists:  A B C D E F G H I J K L M N O P Q R S T U V W X Y Z # 

Tommy Kowerys Car Bass

(ver. 1) Click to play this song!
Toy Dolls
 Rating:
4/5 (4 votes)

 Tommy Kowerys Car lessons Tabs too difficult? Try these video lessons and learn fast
 
                
Tuning:standard

intro/break

G----------------------------------------------------------|
D----------------------------------------------------------|
A-2-3-4-5-5555-5-5555--2-3-4-5-5555-5-5555---------3-3-3-3-|
E3--------------------3--------------------3-3-3-3---------|

end of intro

G---------------------------------|
D---------------------------------|
A-2-3-4-5-5555-5-5555-------------|
E3--------------------333333333-3-|

verse

G--------------------------------------------------------------------|
D--------------------------------------------------------------------|
A--------------3333333-5555555--------------3333333------------------|
E33333333333333----------------3333333333333-------55555555-33333333-|

verse ending

G---------------------------------------------------------------------|
D---------------------------------------------------------------------|
A--------------3333333-5555555--------------3333333-------------------|
E33333333333333---------------33333333333333-------555555555555555555-|

chourus

G
D
A--------3-3-3-3-----------------3-3-3-3---------|
E3-3-3-3--------55555555-3-3-3-3--------55555555-|

thats the song its just repeated a few times (verse is played during the guitar solo)
            
Submit corrections


        Tommy Kowerys Car lessons Hard to play? Try these video lessons and learn fast Tommy Kowerys Car lessons
        
↑ Back to top | Tablatures and chords for acoustic guitar and electric guitar, ukulele, drums are parodies/interpretations of the original songs. You may use it for private study, scholarship, research or language learning purposes only