» » »

Toy Dolls - Sod The Neighbours Bass

Artists:  A B C D E F G H I J K L M N O P Q R S T U V W X Y Z # 

Sod The Neighbours Bass

(ver. 1) Click to play this song!
Toy Dolls
 Rating:
4/5 (4 votes)

 Sod The Neighbours lessons Tabs too difficult? Try these video lessons and learn fast
 
                Look out for the nifty solo...have fun

Intro…
G|----|---------------------|---------------------|
D|----|---------------------|---------------------|
A|----|---------------------|---------------------|
E|-5*-|-5555-0000-3333-0000-|-5555-0000-3333-0000-|

G|---------------------|---------------------|
D|---------------------|---------------------|
A|---------------------|---------------------|
E|-5555-0000-3333-0000-|-5555-0000-3333-0000-|

G|---------------|---------------------|---------------------|
D|---------------|---------------------|---------------------|			
A|-555-00-555-00-|---------------------|---------------------|
E|---------------|-5555-0000-3333-0000-|-5555-0000-3333-0000-|



Bridge 1
G|---------------|--------------|--------------|
D|---------------|--------------|--------------|			
A|-555-00-555-00-|-77/55/2/1/00-|-77/55/2/1/00-|
E|---------------|--------------|--------------|



Verse…
G|---------------------|---------------------|---------------------|
D|---------------------|---------------------|---------------------|
A|---------------------|---------------------|---------------------|
E|-5555-0000-3333-0000-|-5555-0000-3333-0000-|-5555-0000-3333-0000-|

G|---------------------|
D|---------------------|
A|---------------------|
E|-5555-0000-3333-0000-|


Bridge 3					     Chorus
G|---------/14-14-14-14-14-14-14-14-14-|-------------------------|
D|-------------------------------------|-------------------------|
A|-------------------------------------|-555-0-5555-0-3-0---3-0--|
E|-5-5-5-5/----------------------------|-------------------------|

G|----------------------------|
D|----------------------------|
A|-555-0-5555-0-555-0-5555-0--|
E|----------------------------|


Bridge 4 
G|--------------|--------------|
D|--------------|--------------|
A|-77/55/2/1/00-|-77/55/2/1/00-|
E|--------------|--------------|




Verse…
G|---------------------|---------------------|---------------------|
D|---------------------|---------------------|---------------------|
A|---------------------|---------------------|---------------------|
E|-5555-0000-3333-0000-|-5555-0000-3333-0000-|-5555-0000-3333-0000-|

G|---------------------|
D|---------------------|
A|---------------------|
E|-5555-0000-3333-0000-|


Bridge 5
G|-----------------|
D|-----------------|
A|-----------------|
E|-5555555555/321--|


Chorus
G|-----------------------------------|----------------------------|
D|-----------------------------------|----------------------------|
A|-555-0-5555-0-555-0-5555-0-3-0-3-0-|-555-0-5555-0-555-0-5555-0--|
E|-----------------------------------|----------------------------|

G|--------------|--------------|
D|--------------|--------------|
A|-77/55/2/1/00-|-77/55/2/1/00-|
E|--------------|--------------|



Guitar Solo…
G|---------------------|---------------------|---------------------|
D|---------------------|---------------------|---------------------|
A|---------------------|---------------------|---------------------|
E|-5555-0000-3333-0000-|-5555-0000-3333-0000-|-5555-0000-3333-0000-|

G|---------------------|---------------------|---------------------|
D|---------------------|---------------------|---------------------|
A|---------------------|---------------------|---------------------|
E|-5555-0000-3333-0000-|-5555-0000-3333-0000-|-5555-0000-3333-0000-|

G|---------------------|---------------------|
D|---------------------|---------------------|
A|---------------------|---------------------|
E|-5555-0000-3333-0000-|-5555-0000-3333-0000-|


Bass Solo…
G|--------------------------------|--------------------------------|
D|--------------------------------|------------------12-12-11-10---|
A|-12-11-10-9-8-7-8-9/12-12-12-12-|-12-11-11-10-10-11-----------12-|
E|--------------------------------|--------------------------------|

G|----------------------|------------------------------------------------|
D|---11h12-12-14-12-11--|------------------------------------------------|
A|-12-------------------|-0-9-77-9-0-9-7-9-00-99-77-9-----------------7--|
E|----------------------|----------------------------9-7-5--—987654320-0-|


Chorus
G|-------------|-------------|-------------|-------------|---------|
D|-------------|-------------|-------------|-------------|---------|
A|-555555-0h3--|-555555-0h3--|-555555-0h3--|-555555-0h3--|-0h3/17--|
E|-------------|-------------|-------------|-------------|---------|

G|-------------------------------|---------------------------|
D|-------------------------------|---------------------------|
A|-555-0-5555-0-555-0-5555-30-30-|-555-0-5555-0-555-0-5555-0-|
E|-------------------------------|---------------------------|


Ending
G|--------------|--------------|---------------------|---|
D|--------------|--------------|---------------------|---|
A|-77/55/2/1/00-|-77/55/2/1/00-|-5555-0000-3333-0000-|---|
E|--------------|--------------|---------------------|-5-|
            
Submit corrections


        Sod The Neighbours lessons Hard to play? Try these video lessons and learn fast Sod The Neighbours lessons
        
↑ Back to top | Tablatures and chords for acoustic guitar and electric guitar, ukulele, drums are parodies/interpretations of the original songs. You may use it for private study, scholarship, research or language learning purposes only