» » »

Toy Dolls - Idle Gossip Tabs

Artists:  A B C D E F G H I J K L M N O P Q R S T U V W X Y Z # 

Idle Gossip Tabs

(ver. 1) Click to play this song!
Toy Dolls
 Rating:
3.6/5 (7 votes)

 Idle Gossip lessons Tabs too difficult? Try these video lessons and learn fast
 
                This is my first tab so please rate it good, also i learned it from Olga so it 
should be 100% correct.


First finger a g chord but use your thumb for the 6th string.
E|--3--
B|--3--
G|--4--
D|--5--
A|--5--
E|--3--


v=downward
^=upward
///=pick slide or pick scr*pe

intro/verse

       v ^ v ^         X3
E|--3-X-X-X-X----3-----|
B|--3-X-X-X-X-3--3-5-3-|
G|--4-X-X-X-X-3----5-3-|
D|--5-X-X-X-X---5------|
A|--5-X-X-X-X----------|
E|--3-X-X-X-X----------|

       v ^ v ^             (intro only)
E|--3-X-X-X-X----3----------|
B|--3-X-X-X-X-3--3-5-3------|
G|--4-X-X-X-X-3----5-3------|
D|--5-X-X-X-X---5-----------|
A|--5-X-X-X-X----------////-|
E|--3-X-X-X-X----------////-|
            
Submit corrections


        Idle Gossip lessons Hard to play? Try these video lessons and learn fast Idle Gossip lessons
        
↑ Back to top | Tablatures and chords for acoustic guitar and electric guitar, ukulele, drums are parodies/interpretations of the original songs. You may use it for private study, scholarship, research or language learning purposes only