» » »

Toy Dolls - Devil Went To Scunthorpe Tabs

Artists:  A B C D E F G H I J K L M N O P Q R S T U V W X Y Z # 

Devil Went To Scunthorpe Tabs

(ver. 1) Click to play this song!
Toy Dolls
 Rating:
4/5 (4 votes)

 Devil Went To Scunthorpe lessons Tabs too difficult? Try these video lessons and learn fast
 
                Intro

1|---------------5-7---7-8-7-5-----------------------5-7---7-8-7--
2|-5-4-5-7-8-7-8---------------8-7-----5-4-5-7-8-7-8--------------
3|----------------------------------------------------------------
4|----------------------------------------------------------------
5|----------------------------------------------------------------
6|----------------------------------------------------------------


next bending & releasing

1|-------------------------------------------------------------------
2|-5-b7-r5--3-b5-r3--1-b3-r1-----------------------------------------
3|----------------------------4-b5-r4--2-b4-r2-----------------------
4|----------------------------------------------5-b7-r5--4-b5-r432-0-
5|-------------------------------------------------------------------
6|-------------------------------------------------------------------


power chords to the end of intro
1|----------------------------------------------------------------
2|----------------------------------------------------------------
3|----------------------------------------------------------------
4|-----7--9-------------------------------------------------------
5|--9--5--7-------------------------------------------------------
6|--7-------------------------------------------------------------

...
a lot of words :-),
refrens,
...

also the bass part ("...and they sounded smth. like this...")

1|----------------------------------------------
2|----------------------------------------------
3|----------------------------------------------
4|-----------2----------------------------------
5|-----0-1-2---2-1-0---0-1-2---0----and so on...
6|-0-3---------------3-------3---3--------------
            
Submit corrections


        Devil Went To Scunthorpe lessons Hard to play? Try these video lessons and learn fast Devil Went To Scunthorpe lessons
        
↑ Back to top | Tablatures and chords for acoustic guitar and electric guitar, ukulele, drums are parodies/interpretations of the original songs. You may use it for private study, scholarship, research or language learning purposes only