» » »

Toy Dolls - Blue Sued Shoes Bass

Artists:  A B C D E F G H I J K L M N O P Q R S T U V W X Y Z # 

Blue Sued Shoes Bass

(ver. 1) Click to play this song!
Toy Dolls
 Rating:
4/5 (4 votes)

 Blue Sued Shoes lessons Tabs too difficult? Try these video lessons and learn fast
 
                this is just how i think the song is played but im pretty sure im right.

Verse part 1

G--------------|
D--------------|
A--------------|
E5-----5-----5-|

verse part 2
G-----------------------------------------|
D---------------6-9-6-6-9-6--4-7-4--------|
A-4-7-4--4-7-4-7-----7------5-------4-7-4-|
E5------5--------------------------5------|

next is the verse after the song speeds up the first part is the exact same though this 
the first verse after it speeds up there is 3 in total.

G--------------------------------------------------------------|
D--------------------------------------------------------------|
A--------------------7777777777-555555---------7777777---------|
E5-6-7-8-55555555555-------------------5555555---------5555555-|

G--------------------------------------------------------------------|
D--------------------------------------------------------------------|
A--------4-5-6-7------------777777777777-555555--------777777--------|
E5-6-7-8---------5555555555---------------------555555--------555555-|

G----------------------------------------------------------------------------|
D----------------3-4-5-6-6-5-4-3---------------------------------------------|
A--------4-5-6-7-----------------7-6-5-4----------------777777-5555555-------|
E5-6-7-8---------------------------------8-7-6-555555555---------------55555-|

G--------------|
D--------------|
A7777777-------|
E-------555555-|
            
Submit corrections


        Blue Sued Shoes lessons Hard to play? Try these video lessons and learn fast Blue Sued Shoes lessons
        
↑ Back to top | Tablatures and chords for acoustic guitar and electric guitar, ukulele, drums are parodies/interpretations of the original songs. You may use it for private study, scholarship, research or language learning purposes only