» » »

Toy Dolls - Bless You My Son Bass

Artists:  A B C D E F G H I J K L M N O P Q R S T U V W X Y Z # 

Bless You My Son Bass

(ver. 1) Click to play this song!
Toy Dolls
 Rating:
4/5 (4 votes)

 Bless You My Son lessons Tabs too difficult? Try these video lessons and learn fast
 
                The Toy Dolls - Bless You My Son [Bass Tab]

Main Riff:

G-----------------------------------|
D-----------------------------------|
A---0------0------------------------|
E----4-2-4--4(4)-2(2)-4-------------|

Verse:

G------------------------------------|
D-------4-5-6-7----------------------|
A55555-7-----------------------------|   X2
E------------------------------------|

Chorus:

G-----0-1-2-1-0-------------------------------------------------------------|
D-0-4-----------4-----0-1-2-1-0-----------------------0-1-2-1-0-------------|
A-----------------0-4-----------4-----0-1-2-1-0---0-4-----------4-x2---then-|
E---------------------------------0-4-----------4---------------------------|

--------------|
--------------|
--67776777--7-|
-----------5--|

Bridge:

G------------------------------------|
D---4---4--4----5---5--5-------------|
A------------------------------------|
E-2---2---2---3---3---3--------------|

My first tab. Enjoy!
            
Submit corrections


        Bless You My Son lessons Hard to play? Try these video lessons and learn fast Bless You My Son lessons
        
↑ Back to top | Tablatures and chords for acoustic guitar and electric guitar, ukulele, drums are parodies/interpretations of the original songs. You may use it for private study, scholarship, research or language learning purposes only