Home » T » Tove Lo »

Tove Lo - Stay High Tabs

Artists:  A B C D E F G H I J K L M N O P Q R S T U V W X Y Z # 

Stay High Tabs

(ver. 1) Click to play this song!
Tove Lo
Capo on 3rd




RHYTHM CHORDS:

     (G)      (Bm)     (D)

e|----3--------2--------2----|
B|----3--------3--------3----|
G|----0--------4--------2----|
D|----0--------4--------0----|
A|----2--------2--------x----|
E|----3--------2--------x----|

      E       Abm       B
    

 

INTRO:

e|-----------------|
B|-----------------|
G|--4-4--4-4--4-4--|
D|-----------------|
A|-----------------|
E|-----------------|



VERSE 1:

e|----------------------------------------------------------|
B|--3-3-5-3-------3-5-3-------3-5-3-------3-----------------|
G|----------4-2-4-------4-2-4-------4-2-4---0-0-0h2--2-2/4--|
D|----------------------------------------------------------|
A|----------------------------------------------------------|
E|----------------------------------------------------------|   x3


e|-------------------------------------------------------------|
B|--3-3-5-3-------3-5-3-------3-5-3-------------7-7---7-7---7--|
G|----------4-2-4-------4-2-4-------4-2-4-----------9-----9----|
D|------------------------------------------4------------------|
A|-------------------------------------------------------------|
E|-------------------------------------------------------------|



CHORUS:

e|----------------------------------------------------|
B|-----------5h7--10-7---------7-10-7-10-7-10-7-10-7--|
G|----7----------------9-7-9--------------------------|
D|--9---9---------------------------------------------|
A|----------------------------------------------------|
E|----------------------------------------------------|  x2


e|----------------------------------------------------------------------|
B|----------------------------------------------------------------------|
G|--12-12-12-12-12-12-11-11-12-12-12-12-11-11----11-14-11--11-11----11--|
D|--------------------------------------------14-----------------14-----|
A|----------------------------------------------------------------------|
E|----------------------------------------------------------------------|


e|----------------------------------------------------------|
B|-----------5h7--10-7-----------7--10-7-10-7--10-7-10-7----|
G|----7-----------------9-7-9-------------------------------|
D|--9---9---------------------------------------------------|
A|----------------------------------------------------------|
E|----------------------------------------------------------|



VERSE 2:

e|------------------------------------------------------------|
B|------------------------------------------------------------|
G|--7-7-9-7---------7-9-7---------7-9-7-----------------------|
D|-----------9-7-9---------9-7-9---------9-7-9--5-5h7-7-7/9~--|
A|------------------------------------------------------------|
E|------------------------------------------------------------|


e|-----------------------------------------------------|
B|------------------------------------7-7----7-7----7--|
G|--7-7-9-7----------7-9-7----------------9------9-----|
D|-----------9-7-9----------9-7-9----------------------|
A|----------------------------------9------------------|
E|-----------------------------------------------------|



CHORUS:

e|-------------------------------------------------------|
B|-----------5h7--10-7----------7--10-7-10-7--10-7-10-7--|
G|-----7---------------9-7-9-----------------------------|
D|--9----9-----------------------------------------------|
A|-------------------------------------------------------|
E|-------------------------------------------------------|  x2


e|----------------------------------------------------------------------|
B|----------------------------------------------------------------------|
G|--12-12-12-12-12-12-11-11-12-12-12-12-11-11----11-14-11--11-11----11--|
D|--------------------------------------------14-----------------14-----|
A|----------------------------------------------------------------------|
E|----------------------------------------------------------------------|


e|-------------------------------------------------------|
B|-----------5h7--10-7----------7--10-7-10-7--10-7-10-7--|
G|-----7----------------9-7-9----------------------------|
D|--9----9-----------------------------------------------|
A|-------------------------------------------------------|
E|-------------------------------------------------------|



VERSE 3:

e|----------------------------------------------------------------------------------------|
B|----------------------------------------------------------------------------------------|
G|--9p7-9p7-9p7------9p7-9p7-9p7--------7h9----9p7-9p7-9h7------9p7-9p7-9p7--------7h9/11-|
D|--------------9----------------9-7~----------------------9----------------9-7~----------|
A|----------------------------------------------------------------------------------------|
E|----------------------------------------------------------------------------------------|


e|---------------------------------------------------------|
B|---------------------------------------------------------|
G|--12p11-12p11-12p11-9--12p11-12p11-12p11-9~----14-9h11~--|
D|--------------------------------------------12~----------|
A|---------------------------------------------------------|
E|---------------------------------------------------------|


e|-------------------------------------------------------------------|
B|-------------------------------------------------------------------|
G|--12p11-12p11-12p11-9--12p11-12p11-12p11-9~-----11-11-9-11-11-9-11-|
D|--------------------------------------------12~--------------------|
A|-------------------------------------------------------------------|
E|-------------------------------------------------------------------|



CHORUS/OUTRO:

e|-------------------------------------------------------|
B|-----------5h7--10-7----------7--10-7-10-7--10-7-10-7--|
G|-----7----------------9-7-9----------------------------|
D|--9----9-----------------------------------------------|
A|-------------------------------------------------------|
E|-------------------------------------------------------| x2


e|----------------------------------------------------------------------|
B|----------------------------------------------------------------------|
G|--12-12-12-12-12-12-11-11-12-12-12-12-11-11----11-14-11--11-11----11--|
D|--------------------------------------------14-----------------14-----|
A|----------------------------------------------------------------------|
E|----------------------------------------------------------------------|


e|-------------------------------------------------------------|
B|-----------5h7--10-7----------7--10-7-10-7--10-7-10-7--------|
G|-----7----------------9-7-9-----------------------------4-4--|
D|--9----9-----------------------------------------------------|
A|-------------------------------------------------------------|
E|-------------------------------------------------------------|            
Submit corrections

↑ Back to top | Tablatures and chords for acoustic guitar and electric guitar, ukulele, drums are parodies/interpretations of the original songs. You may use it for private study, scholarship, research or language learning purposes only