Home » T » Toshio Masuda »

Toshio Masuda - Need To Be Strong Bass

Artists:  A B C D E F G H I J K L M N O P Q R S T U V W X Y Z # 

Need To Be Strong Bass

(ver. 1) Click to play this song!
Toshio Masuda
G(----------------------------------------------------------)
D(----------------------------------------------------------)
A(----------------------------------------------------------)
E(5----0-6-5-4/0----5----0-6-5-4/0~-------------------------)

G(----------------------------------------------------------)
D(----------------------------------------------------------)
A(----------------------------------------------------------)
E(0-2-3-0-5-0-5-6-0-6-7-0-7-8-0-----------------------------)x3

G(----------------------------------------------------------)
D(----------------------------------------------------------)
A(----------------------------------------------------------)
E(0-2-3-0-5-0-5-6-0-6-7-0-7-8-12~---------------------------)

G(----------------------------------------------------------)
D(----------------------------------------------------------)
A(----------------------------------------------------------)
E(000-7-6-000-6-5-000-5-5-6-6-7-7-8-7-----------------------)

G(----------------------------------------------------------)
D(----------------------------------------------------------)
A(----------------------------------------------------------)
E(000-7-6-000-6-5-000-5-5-6-6-7-7-8/------------------------)

G(----------------------------------------------------------)
D(----------------------------------------------------------)
A(----------------------------------------------------------)
E(5-6-7-8-0~------------------------------------------------)

G(----------------------------------------------------------)
D(----------------------------------------------------------)
A(----------------------------------------------------------)
E(0-2-3-0-5-0-5-6-0-6-7-0-7-8-0-----------------------------)x4

G(----------------------------------------------------------)
D(----------------------------------------------------------)
A(----------------------------------------------------------)
E(0-6-0-6-0-6-3-000000--------------------------------------)x4

G(----------------------------------------------------------)
D(----------------------------------------------------------)
A(----------------------------------------------------------)
E(0-2-3-0-3-0-2-000000--------------------------------------)x4

G(----------------------------------------------------------)
D(----------------------------------------------------------)
A(----------------------------------------------------------)
E(7-000-7-6-000-6-5-000-5-0-5-6-0-5-7-0-7-8-7-000-----------)

G(----------------------------------------------------------)
D(----------------------------------------------------------)
A(----------------------------------------------------------)
E(000-7-6-000-6-5-000-5-5-6-6-7-7-8/------------------------)


G(----------------------------------------------------------)
D(----------------------------------------------------------)
A(----------------------------------------------------------)
E(5-6-7-8-0~------------------------------------------------)


G(----------------------------------------------------------)
D(----------------------------------------------------------)
A(----------------------------------------------------------)
E(0-2-3-0-5-0-5-6-0-6-7-0-7-8-0-----------------------------)x4


G(----------------------------------------------------------)
D(----------------------------------------------------------)
A(----------------------------------------------------------)
E(0-6-0-6-0-6-3-000000--------------------------------------)x4

G(----------------------------------------------------------)
D(----------------------------------------------------------)
A(----------------------------------------------------------)
E(0-2-3-0-3-0-2-000000--------------------------------------)x4

G(----------------------------------------------------------)
D(----------------------------------------------------------)
A(----------------------------------------------------------)
E(7-000-7-6-000-6-5-000-5-0-5-6-0-5-7-0-7-8-7-000-----------)

G(----------------------------------------------------------)
D(----------------------------------------------------------)
A(----------------------------------------------------------)
E(7-000-7-6-000-6-5-000-5-0-5-6-0-5-7-0-7-8-7~--------------)
            
Submit corrections

↑ Back to top | Tablatures and chords for acoustic guitar and electric guitar, ukulele, drums are parodies/interpretations of the original songs. You may use it for private study, scholarship, research or language learning purposes only