» » »

Tori Amos - Professional Widow Tabs

Artists:  A B C D E F G H I J K L M N O P Q R S T U V W X Y Z # 

Professional Widow Tabs

(ver. 1) Click to play this song!
Tori Amos
 Rating:
4/5 (4 votes)
                #------------------------------------------------------------------------------##
#




A lot of people have been asking me for this since I mentioned it in my
'Doughnut Song' post. Here it is:


   intro(harpsichord transcribed for guitar)-
   guitar 1-
   E-------------------------------------------------------|
   B-0-1-2-2-2--2-2---0-1-2-2-2--2---0-1-2-2-2--2-2--0-1-2-|
   G-0-1-2-2-2--2-2---0-1-2-2-2--2---0-1-2-2-2--2-2--0-1-2-|
   D-0-1-2-2-2--2-2---0-1-2-2-2--2---0-1-2-2-2--2-2--0-1-2-|
   A-------------------------------------------------------|
   E-------------------------------------------------------|
   guitar 2-                                               }
   E-------------------------------------------------------|
   B-------------------------------------------------0-1-2-|
   G-0h1\2--2---2-----0h1\2---5--2---0h1\2-----------0-1-2-|
   D-0h1\2--2---2-----0h1\2---5--2---0h1\2-----------0-1-2-|
   A-------------------------------------------------------|
   E-------------------------------------------------------|

The verse sounds a little different from this, but not by much.


I know this is pretty simple but it sounds more accurate
than anything else I've tried. Let me know if you come up
with something better. Write me with any comments, questions,
it.


Symbols used in transcription:
h = hammer-on
\ = slide
            
Submit corrections

↑ Back to top | Tablatures and chords for acoustic guitar and electric guitar, ukulele, drums are parodies/interpretations of the original songs. You may use it for private study, scholarship, research or language learning purposes only