Home » T » Toots And The Maytals »

Toots And The Maytals - Love Gonna Walk Out On Me Tabs

Artists:  A B C D E F G H I J K L M N O P Q R S T U V W X Y Z # 

Love Gonna Walk Out On Me Tabs

(ver. 1) Click to play this song!
Toots And The Maytals


Intro
 F                          C                              G      C           F    C    G    C
e:--------------------------------------------------------------------------|
B:-----1h3p1---------------------------------------1h3p3------------------1-|
G:---2-------2---0--0h2p0----------0-------------2-------2--0--0-0--------0-|
D:---3-----------2--------2--------2---0h2p0-----3----------2--2-2--------2-|
A:---3-----------3-------------0-2-3---------3---3----------3--3-3----0-2-3-|
E:---------------------------3--------------------------------------3-------|
    C7 C     C7 C       
e:---------------------|
B:---3-1-----3-1-------|
G:---0-0-----0-0-------|  x3
D:---2-2-----2-2-------|
A:---3-3-----3-3-------|
E:---------------------|


Verse 1

      C      E7        Am
Every time I see your face
          F     C         G
Something moves within my heart
       C           E7   Am
And it thrills me to my soul

And tell me that

  F              G      Am
Love's not gonna let me down

Oh no Oh no
  F              G    C      G
Love's not gonna let me down


Verse 2

C E7 Am
F C G
C E7 Am


Chorus

F              G    Am
Love's not gonna let me down
F              G    C   E7
Love's not gonna let me down
F              G    Am
Love's not gonna let me down
F              G    C   E7
Love's not gonna let me down


Solo:
(Just pick these chords)

C E7 Am
F C G
C E7 Am
F G Am
F G Am


Verse 3

C E7 Am
F C G
C E7 Am


Chorus

F              G    Am
Love's not gonna let me down
F              G    C   E7
Love's not gonna let me down
F              G    Am
Love's not gonna let me down
F              G    C   E7
Love's not gonna let me down
F              G    Am
Love's not gonna let me down
F              G    C   E7
Love's not gonna let me down
F              G    Am
Love's not gonna let me down
F             G    Am

End on Am

The End!!

Please Rate this song, its one of my favorites and no one had a tab so i did it.
            
Submit corrections

↑ Back to top | Tablatures and chords for acoustic guitar and electric guitar, ukulele, drums are parodies/interpretations of the original songs. You may use it for private study, scholarship, research or language learning purposes only