Home » T » Tony Sly »

Tony Sly - Stunt Double Tabs

Artists:  A B C D E F G H I J K L M N O P Q R S T U V W X Y Z # 

Stunt Double Tabs

(ver. 1) Click to play this song!
Tony Sly
-------------------------------------------------------------------------------
-------------------------------------------------------------------------------

i found a chords-only tab to this that i think requires a capo or something. my chords 
probably way off (the irony here being i'm predominantly a 'punk rock rhythm guitarist') 
i'm pretty sure my lead parts are right.

tuning: standard

intro:

E||-----------------------------------------------------------------------------|
B||--------4-----------------------4-----6--9--8--------------------------------|
G||-5----5--5-6-----6-8-6-5-----5---5-8--8--8--8--------------------------------|
D||---6--------6------------6---------------------------------------------------|
A||----8---------8------------6-------------------------------------------------|
E||-----------------------------------------------------------------------------|

chords:

C                  C#
here's another drink to cover
G#                  Eb
every word you say
C                 C#
find excuses, it wasn't you then
G#                 Eb
sorry, my mistake

C#                      G#
so here comes the part
Eb
where your stunt double plays
C#                      G#
you as somebody else
Eb
to take the fall and blame

(same chords for the second verse, with the piano over the top...)

piano:

E||-9--9--9--9--8--8--8--8--11--11--11--11--11--11--11--11-----------------------|
B||--9--9--9--9--9--9--9--9---9---9---9---9---9---9---9---9----------------------|
G||------------------------------------------------------------------------------|
D||------------------------------------------------------------------------------|
A||------------------------------------------------------------------------------|
E||------------------------------------------------------------------------------|

coda chords:

C# Eb Fb G# (11th fret) G# (4th fret)

piano coda...

E||----------8---9----8--------------------------------------------------------|
B||-9---11---------------------------------------------------------------------|
G||----------------------------------------------------------------------------|
D||----------------------------------------------------------------------------|
A||----------------------------------------------------------------------------|
E||----------------------------------------------------------------------------|

| /  slide up
| \  slide down
| h  hammer-on
| p  pull-off
| ~  vibrato
| +  harmonic
| x  Mute note
===============================================================================
            
Submit corrections

↑ Back to top | Tablatures and chords for acoustic guitar and electric guitar, ukulele, drums are parodies/interpretations of the original songs. You may use it for private study, scholarship, research or language learning purposes only