Home » T » Tom Waits »

Tom Waits - Chocolate Jesus Tabs

Artists:  A B C D E F G H I J K L M N O P Q R S T U V W X Y Z # 

Chocolate Jesus Tabs

(ver. 1) Click to play this song!
Tom Waits
----------------------------------------------------------------------------------------------------
                                Tom Waits - Chocolate Jesus
----------------------------------------------------------------------------------------------------

Album : Mule Variations (1999)
Tempo : 100
E-mail: gwendal.mollo@orange.fr
Tabbed by: newg    (http://profile.ultimate-guitar.com/newg/)

Capo 1

[Intro]
e|-----------------------------------|---------------------------------|
B|-----------3-----3-----------3-----|--------5h-------6h-5--------3---|
G|-----------------------------------|--2------------------------------|
D|--0--------------------------------|---------------------------------|
A|--------------------0--------------|---------------------------------|
E|-----------------------------------|---------------------------------|


[Verse]
    Dm
e|--------1--1--------1-------|--------1--1--------1-------|
B|--------3--3--------3-------|--------3--3--------3-------|
G|--------2-----------2-------|--------2-----------2-------|
D|--0-------------------------|--0-------------------------|
A|--------------0-------------|--------------0-------------|
E|----------------------------|----------------------------|

                                 Gm
e|--------1--1--------1-------|--------3--3--------3-------|
B|--------3--3--------3-------|--------3--3--------3-------|
G|--------2-----------2-------|--------3-----------3-------|
D|--0-------------------------|--------5-----------5-------|
A|--------------0-------------|--------5-------------------|
E|----------------------------|--3-----------5-------------|

                                 Dm
e|--------3--3--------3-------|--------1--1--------1-------|
B|--------3--3--------3-------|--------3--3--------3-------|
G|--------3-----------3-------|--------2-----------2-------|
D|--------5-----------5-------|--0-------------------------|
A|--------5-------------------|--------------0-------------|
E|--3-----------5-------------|----------------------------|
 
    A                           Dm
e|--------0--0--------0-------|--------1--1--------1-------|
B|--------2--2--------2-------|--------3--3--------3-------|
G|--------2-----------2-------|--------2-----------2-------|
D|--------2-----------2-------|--0-------------------------|
A|--0-------------------------|--------------0-------------|
E|--------------0-------------|----------------------------|

 x5
 
[Solo]
e|--------------1-----1--1----|--3-------------|--------------1-----5-------|
B|--3--3--3--3----------------|-----3----------|--3--3--3--3----------------|
G|----------------------------|----------------|----------------------------|
D|----------------------------|----------------|----------------------------|
A|----------------------------|----------------|----------------------------|
E|----------------------------|----------------|----------------------------|


e|--3-------|--3--3--3--1--3-----3-------|--5-------------|
B|----------|----------------------------|-----3----------|
G|----------|----------------------------|----------------|
D|----------|----------------------------|----------------|
A|----------|----------------------------|----------------|
E|----------|----------------------------|----------------|


e|--5--5--5--3--5-----5--5----|--1--0----|
B|----------------------------|----------|
G|----------------------------|----------|
D|----------------------------|----------|
A|----------------------------|----------|
E|----------------------------|----------|



[Break]
e|--------3-----------3-------|--------3-----------3-------|
B|--------3-----------3-------|--------3-----------3-------|
G|--------3-----------3-------|--------3-----------3-------|
D|--------5-----------5-------|--------5-----------5-------|
A|--------5-------------------|--------5-------------------|
E|--3-----------5-------------|--3-----------5-------------|


e|--------3-----------3-------|--------1--1--------1-------|
B|--------3-----------3-------|--------3--3--------3-------|
G|--------3-----------3-------|--------2-----------2-------|
D|--------5-----------5-------|--0-------------------------|
A|--------5-------------------|--------------0-------------|
E|--3-----------5-------------|----------------------------|


e|--------1--1--------1-------|
B|--------3--3--------3-------|
G|--------2-----------2-------|
D|--0-------------------------|
A|--------------0-------------|
E|----------------------------|


[Outro]
e|--4/5----3----1----0----|--------1--1--------1-------|--4/5----3----1----0----|---------|
B|------------------------|--------3--3--------3-------|------------------------|---------|
G|------------------------|--------2-----------2-------|------------------------|---------|
D|------------------------|--0-------------------------|------------------------|--0------|
A|------------------------|--------------0-------------|------------------------|---------|
E|------------------------|----------------------------|------------------------|---------|

            
Submit corrections

↑ Back to top | Tablatures and chords for acoustic guitar and electric guitar, ukulele, drums are parodies/interpretations of the original songs. You may use it for private study, scholarship, research or language learning purposes only