» » »

Tom Odell - Bass

Artists:  A B C D E F G H I J K L M N O P Q R S T U V W X Y Z # 

Bass

(ver. 1) Click to play this song!
Tom Odell
 Rating:
4.3/5 (19 votes)


  lessons Tabs too difficult? Try these video lessons and learn fast
 
                Author
Difficulty
Tuning
Banthar 414
novice
E A D G
Concrete - Tom Odell

Tabbed by: Banthar
Feedback at: banthar_farnwall@yahoo.de

[Intro]
(play bass or clap your hands (like in the original)):
G|----------------|----------------|----------------|----------------|
D|----------------|----------------|----------------|----------------|
A|--------6-------|--------6-------|--------6-------|----------------|
E|8--6-------4----|8--6-------4----|8--6-------4----|8--1----1--3----|

[Chorus]
G|----------------|----------------|----------------|----------------|
D|----------------|----------------|----------------|----------------|
A|--------6-------|--------6-------|--------6-------|--------6-------|
E|8--6--68---4---6|8--6--68---4---6|8--6--68---4---6|8--6--68---4----|

G|----------------|----------------|----------------|----------------|
D|----------------|----------------|----------------|----------------|
A|--------6-------|--------6-------|--------6-------|----------------|
E|8--6-------4----|8--6-------4----|8--6-------4----|8--1----1--3----|

G|----------------|----------------|----------------|----------------|----------------|----------------|
D|----------------|----------------|----------------|----------------|----------------|----------------|
A|--------6-------|--------6-------|--------6-------|--------6-------|--------6-------|--------6-------|
E|8--6--68---4---6|8--6--68---4---6|8--6--68---4---6|8--6--68---4----|8--6-------4----|8--6-------4----|

[Break]
G|----------------|----------------|----------------|----------------|----------------|----------------|
D|----------------|----------------|----------------|----------------|----------------|----------------|
A|----------------|6--5----3-------|----------------|6--5----3-------|8--8------------|8--8------------|
E|1--1----6--6---8|----------------|1--1----6--6---8|----------------|--------6--6----|--------33333333|

[Chorus]
G|----------------|----------------|----------------|----------------|
D|----------------|----------------|----------------|----------------|
A|--------6-------|--------6-------|--------6-------|--------6-------|
E|8--6--68---4---6|8--6--68---4---6|8--6--68---4---6|8--6--68---4----| 

G|----------------|----------------|----------------|----------------|
D|----------------|----------------|----------------|----------------|
A|--------6-------|--------6-------|--------6-------|--------6-------|
E|8--6--68---4---6|8--6--68---4---6|8--6--68---4---6|8--6--68---4----| 

G|----------------|----------------|----------------|----------------|
D|----------------|----------------|----------------|----------------|
A|--------6-------|--------6-------|--------6-------|----------------|
E|8--6-------4----|8--6-------4----|8--6-------4----|----------------|            
Submit corrections



         lessons Hard to play? Try these video lessons and learn fast  lessons
        
↑ Back to top | Tablatures and chords for acoustic guitar and electric guitar, ukulele, drums are parodies/interpretations of the original songs. You may use it for private study, scholarship, research or language learning purposes only