» » »

Tom Morello - The Mexican Tabs

Artists:  A B C D E F G H I J K L M N O P Q R S T U V W X Y Z # 

The Mexican Tabs

(ver. 1) Click to play this song!
Tom Morello
 Rating:
4/5 (4 votes)

 The Mexican  lessons Tabs too difficult? Try these video lessons and learn fast
 
                
e|---------------------------------------------------------------------------|
B|---------------------------------------------------------------------------|
G|---------------------------------------------------------------------------|
D|--------14--------12-------------------------------------------------------|
A|----14----------------14----12----14-----12--------------------------------|
E|---------------------------------------------12----------------------------|

e|---------------------------------------------------------------------------|
B|---------------------------------------------------------------------------|
G|----------//11--//12----------12H14---->14 >14 >14 14P12--12H14------------| 
D|--------14-----------------------------------------------------------------|
A|-----14--------------------------------------------------------------------|
E|---------------------------------------------------------------------------|

e|---------------------------------------------------------------------------|
B|-------//15---//12---------------------------------------------------------|
G|---------------//14----//11------------------------------------------------|
D|-----------------------------//12---//14-----------------------------------|
A|---------------------------------------------------------------------------|
E|---------------------------------------------------------------------------|            
Submit corrections


        The Mexican  lessons Hard to play? Try these video lessons and learn fast The Mexican  lessons
        
↑ Back to top | Tablatures and chords for acoustic guitar and electric guitar, ukulele, drums are parodies/interpretations of the original songs. You may use it for private study, scholarship, research or language learning purposes only