» » »

Tom Morello - Rabbits Revenge Tabs

Artists:  A B C D E F G H I J K L M N O P Q R S T U V W X Y Z # 

Rabbits Revenge Tabs

(ver. 1) Click to play this song!
Tom Morello
 Rating:
4.3/5 (18 votes)

 Rabbits Revenge lessons Tabs too difficult? Try these video lessons and learn fast
 
                [Intro]

e|----------------------------------|---------------------------------------------|
B|----------------------------------|---------------------------------------------|
G|---7-7-7-7---8-8-8-8---9-9-9\-----|----7-7-7-7-7--6-6-6-6-6--5-5-5-5------------|
D|---x-x-x-x---x-x-x-x---x-x-x\---3x|----x-x-x-x-x--x-x-x-x-x--x-x-x-x------------|
A|---5-5-5-5---6-6-6-6---7-7-7\-----|----5-5-5-5-5--4-4-4-4-4--3-3-3-3------------|
D|----------0---------0-------------|---------------------------------------------|


[Chorus]

"It ain't no fun when the rabbit got the gun..."
e|---------------------------------------------------------------------------|
B|---------------------------------------------------------------------------|
G|---7-7-x-x-x-x-------7-7--7-8~--7-7-x-x-x-x-----7-7-8-8-8-8-9-9-9-9--------|
D|---7-7-x-x-x-x--3x---7-7--7-8~--7-7-x-x-x-x-2x--7-7-x-x-x-x-x-x-x-x--------| x2
A|---5-5-x-x-x-x-------5-5--5-6~--5-5-x-x-x-x-----5-5-6-6-6-6-7-7-7-7--------|
D|---------------------------------------------------------------------------|

[Verse]
e|----------------------------------|---------------------------------------------|
B|----------------------------------|---------------------------------------------|
G|---7-7-7-7---8-8-8-8---9-9-9\-----|----7-7-7-7-7--6-6-6-6-6--5-5-5-5------------|
D|---x-x-x-x---x-x-x-x---x-x-x\---3x|----x-x-x-x-x--x-x-x-x-x--x-x-x-x------------|
A|---5-5-5-5---6-6-6-6---7-7-7\-----|----5-5-5-5-5--4-4-4-4-4--3-3-3-3------------|
D|----------0---------0-------------|---------------------------------------------|


[Chorus]

"It ain't no fun when the rabbit got the gun..."
e|---------------------------------------------------------------------------|
B|---------------------------------------------------------------------------|
G|---7-7-x-x-x-x-------7-7--7-8~--7-7-x-x-x-x-----7-7-8-8-8-8-9-9-9-9--------|
D|---7-7-x-x-x-x--3x---7-7--7-8~--7-7-x-x-x-x-2x--7-7-x-x-x-x-x-x-x-x--------| x2
A|---5-5-x-x-x-x-------5-5--5-6~--5-5-x-x-x-x-----5-5-6-6-6-6-7-7-7-7--------|
D|---------------------------------------------------------------------------|


[Outro]

e|---------------------------------|--------------------------------------
B|---------------------------------|--------------------------------------
G|---------------------------------|--------------------------------------
D|---------3-----------------------|------------3-------------------------
A|---3-5-------3------3-5-------3~-|------3-5-------3------3-5---3-----3--
D|-0-----0---3---3--0-----0-2-3----|----0-----0---3---3--0-----0---5-3----

e|---------------------------------|--------------------------------------
B|---------------------------------|--------------------------------------
G|---------------------------------|--------------------------------------
D|---------3-----------------------|------------3-------------------------
A|---3-5-------3------3-5-------3~-|------3-5-------3------3-5-------3~---
D|-0-----0---3---3--0-----0-2-3----|----0-----0---3---3--0-----0-2-3------

"It ain't no fun when the rabbit got the gun..."
e|---------------------------------------------------------------------------|
B|---------------------------------------------------------------------------|
G|---7-7-x-x-x-x-------7-7--7-8~--7-7-x-x-x-x-----7-7-8-8-8-8-9-9-9-9--------|
D|---7-7-x-x-x-x--3x---7-7--7-8~--7-7-x-x-x-x-2x--7-7-x-x-x-x-x-x-x-x--------| x2
A|---5-5-x-x-x-x-------5-5--5-6~--5-5-x-x-x-x-----5-5-6-6-6-6-7-7-7-7--------|
D|---------------------------------------------------------------------------|

            
Submit corrections


        Rabbits Revenge lessons Hard to play? Try these video lessons and learn fast Rabbits Revenge lessons
        
↑ Back to top | Tablatures and chords for acoustic guitar and electric guitar, ukulele, drums are parodies/interpretations of the original songs. You may use it for private study, scholarship, research or language learning purposes only