» » »

Tom Morello - Every Step That I Take Tabs

Artists:  A B C D E F G H I J K L M N O P Q R S T U V W X Y Z # 

Every Step That I Take Tabs

(ver. 1) Click to play this song!
Tom Morello
 Rating:
4.3/5 (24 votes)

 Every Step That I Take lessons Tabs too difficult? Try these video lessons and learn fast
 
                [Intro]

e|---------------------------------------------------------------------------|
B|---------------------------------------------------------------------------|
G|---------------------------------------------------------------------------|
D|---------------------------------------------------------------------------|
A|-19--14-17---14-12-10-7--19--14-17---14-12-10-7b--(7-7-7-7)-(switch efect)-|
E|---------------------------------------------------------------------------|


[Verse]

e|---------------------------------------------------------------------------|
B|---------------------------------------------------------------------------|
G|---------------------------------------------------------------------------|
D|---------------------5-5---------------------------------------------------|
A|--2-2----5-5---7-7---3-3---------------------------------------------------|
E|--0-0----3-3---5-5---------------------------------------------------------|


[Pré Chorus]
(Delay Pedeal)

Every time I move
Every step that I take
Everywhere I look
It's right in front of my face

A

e|---17---17---15---15---14---14---12---12---|    \
B|-----12---12---12---12---12---12---12---12-|     \
G|-------------------------------------------|      \ 
D|-------------------------------------------|3x     \
A|-------------------------------------------|        \
E|-------------------------------------------|         \
                                                        \
B                                                         together (A)3x + (B)1x
                                                        /
e|---17---17---15---15---14---14-------------|         /
B|-----12---12---12---12---12----------------|        /
G|-------------------------------------------|       /
D|-------------------------------------------|      /
A|-------------------------------------------|     /
E|-------------------------------------------|    /


[Chorus]

"Every step that I take!"

e|----------------------------------------------------------------------------------------|
B|--------------------------------------------------17-----------15-15---17---------------|
G|------------------------------------------------------15b-15b-------------15b-15b-------|
D|-------------------5~----------------------5~-------------------------------------------|
A|--2~-----5~---7~---3~---- 2~-----5~---7----3~-------------------------------------------|
E|--0~-----3~---5~----------0~-----3~---5~------------------------------------------------|


[Solo]
e|--------------------------------------------------------------------------------------14h15--17b-17b|
B|--------------------------------------------------------------------------------15-17---------------|
G|--------------------------------------------16h14-16b---------------16h14-16h17---------------------|
D|--------------------------------------16-17-------------------16-17---------------------------------|
A|--14-19--14-17---14-12-10-7b----14-19-------------------14-19---------------------------------------|
E|----------------------------------------------------------------------------------------------------|

            
Submit corrections


        Every Step That I Take lessons Hard to play? Try these video lessons and learn fast Every Step That I Take lessons
        
↑ Back to top | Tablatures and chords for acoustic guitar and electric guitar, ukulele, drums are parodies/interpretations of the original songs. You may use it for private study, scholarship, research or language learning purposes only