Home » T » Tom Milsom »

Tom Milsom - Genetics Bass

Artists:  A B C D E F G H I J K L M N O P Q R S T U V W X Y Z # 

Genetics Bass

(ver. 1) Click to play this song!
Tom Milsom
Tom Milsom - Genetics

Tuning: Standard


G----------------2-----|
D-----5-------3-----3--|
A--3-----3-------------|
E----------------------| x4


G----------------------|
D-----2----------5-----|
A--0-----0----3-----2--|
E----------------------| x1

G-------------------5--|
D-----2-------3---5----|
A--0-----0-------------|
E----------------------| x1


G--2------0--------0---|
D----3--0----2-3-0-----|
A----------------------| x2
E----------------------|


G----------------2---|
D-----5-------3------|
A--3-----------------|
E--------------------| x4

G----------------------|
D-----2----------5-----|
A--0-----0----3-----2--|
E----------------------| x3


G----------0---5----7--|
D-----2-----3----5-----|
A--0---3---------------|
E----------------------| x1


G---------0--------0-|
D--2-3--0----2-3-0---|
A--------------------| x2
E--------------------|
            
Submit corrections

↑ Back to top | Tablatures and chords for acoustic guitar and electric guitar, ukulele, drums are parodies/interpretations of the original songs. You may use it for private study, scholarship, research or language learning purposes only