Home » T » Todd Rundgren »

Todd Rundgren - Love Of The Common Man Acoustic Tabs

Artists:  A B C D E F G H I J K L M N O P Q R S T U V W X Y Z # 

Love Of The Common Man Acoustic Tabs

(ver. 1) Click to play this song!
Todd Rundgren
    [Intro]
                AH  AH            AH  AH
e|---0---0---0------12--0---0---0-----5-----------|
B|---5---4---2--12------5---4---2--5--------------|
G|---6---4---2----------6---4---2-----------------|
D|---6---4---2----------6---4---2-----------------|
A|---0---0---0----------0---0---0-----------------|
E|---X---X---X----------X---X---X-----------------|
 
 
   [Verse 1]
 
e|------------9-9------------7-7----------4-4-----X-X--------0-0--0-0--0-0--0-0---------|
B|------------9-9------------7-7----------5-5-----4-4--------0-0--0-0--0-0--0-0---------|
G|------------9-9------------8-8----------6-6-----4-4--------2-2--2-2--2-2--2-2---------|
D|------------6-6------------9-9----------6-6-----4-4--------2-2--2-2--2-2--2-2---------|
A|------------7-7------------7-7----------4-4-----2-2--------0-0--0-0--0-0--0-0---------|
E|------------0-0------------0-0----------X-X-----X-X--------X-X--X-X--X-X--X-X---------|
    I've been bu............rn............ed      in     my prime
 
 
e|------------9-9------------7-7----------4-4-----X-X--------0-0--0-0--0-0--0-0---------|
B|------------9-9------------7-7----------5-5-----4-4--------2-2--2-2--2-2--2-2---------|
G|------------9-9------------8-8----------6-6-----4-4--------1-1--1-1--1-1--1-1---------|
D|------------6-6------------9-9----------6-6-----4-4--------2-2--2-2--2-2--2-2---------|
A|------------7-7------------7-7----------4-4-----2-2--------0-0--0-0--0-0--0-0---------|
E|------------0-0------------0-0----------X-X-----X-X--------X-X--X-X--X-X--X-X---------|
         The simple things in life seem so hard to learn   sometimes
 
 
 
e|-----------2----0-0---4-4-4---4-4-4-----------4-4------X-X------0-0-0---0-0-0-----2--------X-X-------|
B|-----------2----2-2---4-4-4---4-4-4-----------5-5------4-4------2-2-2---2-2-2-----2--------4-4-------|
G|-----------2----1-1---4-4-4---4-4-4-----------6-6------4-4------1-1-1---1-1-1-----2--------4-4-------|
D|-----------0----2-2---2-2-2---2-2-2-----------6-6------4-4------2-2-2---2-2-2-----2--------4-4-------|
A|-----------0----0-0---2-2-2---2-2-2-----------4-4------2-2------0-0-0---0-0-0-----4--------2-2-------|
E|----------------------0-0-0---0-0-0-----------------------------------------------2--------X-X-------|
    And it takes so   long                     Catch it while you can              Too late tomorrow
 
 
 
e|-----------0-------0-------0---0-0-0----------|
B|-----------5-------4-------2---2-2-2----------|
G|-----------6-------4-------2---2-2-2----------|
D|-----------6-------4-------2---2-2-2----------|
A|-----------0-------0-------0---0-0-0----------|
E|-----------X-------X-------X---X-X-X----------|
      And    ev......ery.....one
 
 
   [Verse 2]
 
e|------------9-9------------7-7----------4-4------2-2--------0-0--0-0--0-0--0-0---------|
B|------------9-9------------7-7----------5-5------4-4--------0-0--0-0--0-0--0-0---------|
G|------------9-9------------8-8----------6-6------4-4--------2-2--2-2--2-2--2-2---------|
D|------------6-6------------9-9----------6-6------4-4--------2-2--2-2--2-2--2-2---------|
A|------------7-7------------7-7----------4-4------2-2--------0-0--0-0--0-0--0-0---------|
E|------------0-0------------0-0----------X-X------X-X--------X-X--X-X--X-X--X-X---------|
         Said we            all          know what comes of that  
 
 
 
e|------------9-9------------7-7----------4-4-----X-X--------0-0--0-0--0-0--0-0---------|
B|------------9-9------------7-7----------5-5-----4-4--------2-2--2-2--2-2--2-2---------|
G|------------9-9------------8-8----------6-6-----4-4--------1-1--1-1--1-1--1-1---------|
D|------------6-6------------9-9----------6-6-----4-4--------2-2--2-2--2-2--2-2---------|
A|------------7-7------------7-7----------4-4-----2-2--------0-0--0-0--0-0--0-0---------|
E|------------0-0------------0-0----------X-X-----X-X--------X-X--X-X--X-X--X-X---------|
             Living in your pockets and  talking  through your hat 
 
 
e|-----------2----0-0---4-4-4---4-4-4-----------4-4------X-X------0-0-0---0-0-0-----2--------X-X-------|
B|-----------2----2-2---4-4-4---4-4-4-----------5-5------4-4------2-2-2---2-2-2-----2--------4-4-------|
G|-----------2----1-1---4-4-4---4-4-4-----------6-6------4-4------1-1-1---1-1-1-----2--------4-4-------|
D|-----------0----2-2---2-2-2---2-2-2-----------6-6------4-4------2-2-2---2-2-2-----2--------4-4-------|
E|-----------0----0-0---2-2-2---2-2-2-----------4-4------2-2------0-0-0---0-0-0-----4--------2-2-------|
E|----------------------0-0-0---0-0-0-----------------------------------------------2--------X-X-------|
    But it won't  take  long                 To turn your head   around            Too late tomorrow
 
 
 
e|-----------0-------0-------0---0-0-0-----------------2----------X-X-----4--4-4-4--4-4-4------|
B|-----------5-------4-------2---2-2-2-----------------2----------4-4-----4--4-4-4--4-4-4------|
G|-----------6-------4-------2---2-2-2-----------------2----------4-4-----4--4-4-4--4-4-4------|
D|-----------6-------4-------2---2-2-2-----------------2----------4-4-----2--2-2-2--2-2-2------|
A|-----------0-------0-------0---0-0-0-----------------4----------2-2-----2--2-2-2--2-2-2------|
E|-----------X-------X-------X---X-X-X-----------------2------------------0--0-0-0--0-0-0------|
      Cause  ev......ery.....one            needs the love of the common man
 
 
 
e|------4-4------X-X------0-0-0---0-0-0-----2--------X-X---------------------------------|
B|------5-5------4-4------2-2-2---2-2-2-----2--------4-4---------------------------------|
G|------4-4------4-4------1-1-1---1-1-1-----2--------4-4---------------------------------|
D|------6-6------4-4------2-2-2---2-2-2-----2--------4-4---------------------------------|
A|------4-4------2-2------0-0-0---0-0-0-----4--------2-2---------------------------------|
E|------------------------------------------2--------X-X---------------------------------|
    To turn your head around                Too late tomorrow
 
 
e|-----------0-------0-------0---0-0-0--------------|
B|-----------5-------4-------2---2-2-2--------------|
G|-----------6-------4-------2---2-2-2--------------|
D|-----------6-------4-------2---2-2-2--------------|
A|-----------0-------0-------0---0-0-0--------------|
E|-----------X-------X-------X---X-X-X--------------|
      Cause  ev......ery.....one    
 
 
     [Bridge}
 
e|-------4-4-----4--4-4---------------4--4-4-4-4-4-4-4------0---0-0-0---0-0-0---0-0-0--------|
B|-------4-4-----4--4-4---------------5--4-5-4-5-4-5-4------2---2-2-2---2-2-2---2-2-2--------|
G|-------4-4-----4--4-4---------------4--4-4-4-4-4-4-4------1---1-1-1---1-1-1---1-1-1--------|
D|-------4-4-----4--4-4---------------6--6-6-6-6-6-6-6------2---2-2-2---2-2-2---2-2-2--------|
A|-------6-6-----6--6-6---------------4--4-4-4-4-4-4-4------0---0-0-0---0-0-0---0-0-0--------|
E|-------4-4-----4--4-4----------------------------------------------------------------------|
        Everyone is waiting,        just anticipating   on  you
 
 
 
e|-------4-4-----4--4-4-----------4--4-4-4-4-4-4-4------0---0-0-0---X---X-X-X-----------------|
B|-------4-4-----4--4-4-----------5--4-5-4-5-4-5-4------2---2-2-2---4---4-4-4-----------------|
G|-------4-4-----4--4-4-----------4--4-4-4-4-4-4-4------1---1-1-1---4---4-4-4-----------------|
D|-------4-4-----4--4-4-----------6--6-6-6-6-6-6-6------2---2-2-2---4---4-4-4-----------------|
A|-------6-6-----6--6-6-----------4--4-4-4-4-4-4-4------0---0-0-0---6---6-6-6-----------------|
E|-------4-4-----4--4-4---------------------------------------------5---5-5-5-----------------|
        Won't you make a showing everybody knows what to do
 
 
e|------X----X----X----X-----4-4------4------0-----0-----0---0---0---0-------0-----0-----0---0---0-----|
B|------0----0----0----0-----4-4------4------5-----4-----2---2---2---2-------5-----4-----2---2---2-----|
G|------4----4----4----4-----4-4------4------6-----4-----2---2---2---2-------6-----4-----2---2---2-----|
D|------2----2----2----2-----4-4------4------6-----4-----2---2---2---2-------6-----4-----2---2---2-----|
A|------X----X----X----X-----6-6------6------0-----0-----0---0---0---0-------0-----0-----0---0---0-----|
E|------4----4----4----4-----4-4------4----------------------------------------------------------------|
Take a dive from your ivory tower And fall on ev...ery...one will catch you, ev....ery...one
 
 
     [Solo]
        /                   /                 /
e|----s-------h-----------s-------h---------s----------------------------h--p------h--p------h---------|
B|--5---7---7---9---9---5---7---9---9---5-5---7---7---9-9--7-7--5--5---4--5--4---4--5--4---4--5--------|
D|--6---8---8---9---9---6---8---9---9---6-6---8---8---9-9--8-8--6--6---4--4--4---4--4--4---4--4--------|
D|--7---9---9---9---9---7---9---9---9---7-7---9---9---9-9--9-9--7--7---4--6--4---4--6--4---4--6--------|
A|--0-------0-----------0-------0-------0-0---------------------0--0---0---------0---------0-----------|
E|-----------------------------------------------------------------------------------------------------|
 
           p     /
e|-------2--0----s----------------------------------0--0--0-0---2--2-2---0--0------4----4---X-X---0-0----|
B|---h-0-2--0--5---7---7---9---5---7---9---0-0-0-0--5--5--5-5---2--2-2---2--2------4----5---4-4---2-2----|
G|--0--2-2-----6---8---8---9---6---8---9---9-8-9-8--6--6--6-6---2--2-2---1--1---4--4----4---4-4---1-1----|
D|--0--2-0-----7---9---9---9---7---9---9---9-9-9-9--7--7--7-7---2--2-2---2--2---2--2----6---4-4---2-2----|
A|--0--0-------0------------------------------------0--0--0-0---X--X-X---0--0---2--2----4---2-2---0-0----|
E|--------------------------------------------------5--5--5-5---2--2-2----------0--0---------------------|
 
 
e|--2-2--X-X---X---0---0---0-0-0-------------|
B|--2-2--4-4---5---4---2---2-2-2-------------|
G|--2-2--4-4---6---4---2---2-2-2-------------|
D|--2-2--4-4---6---4---2---2-2-2-------------|
A|--X-X--2-2---0---0---0---0-0-0-------------|
E|--2-2--------------------------------------|
 
 
     [Bridge 2}
 
e|-------4-4-----4--4-4---------------4--4-4-4-4-4-4-4------0---0-0-0---0-0-0---0-0-0--------|
B|-------4-4-----4--4-4---------------5--4-5-4-5-4-5-4------2---2-2-2---2-2-2---2-2-2--------|
G|-------4-4-----4--4-4---------------4--4-4-4-4-4-4-4------1---1-1-1---1-1-1---1-1-1--------|
D|-------4-4-----4--4-4---------------6--6-6-6-6-6-6-6------2---2-2-2---2-2-2---2-2-2--------|
A|-------6-6-----6--6-6---------------4--4-4-4-4-4-4-4------0---0-0-0---0-0-0---0-0-0--------|
E|-------4-4-----4--4-4----------------------------------------------------------------------|
        Everyone is waiting,        just anticipating   on  you
 
 
 
e|-------4-4-----4--4-4-----------4--4-4-4-4-4-4-4------0---0-0-0---X---X-X-X-----------------|
B|-------4-4-----4--4-4-----------5--4-5-4-5-4-5-4------2---2-2-2---4---4-4-4-----------------|
G|-------4-4-----4--4-4-----------4--4-4-4-4-4-4-4------1---1-1-1---4---4-4-4-----------------|
D|-------4-4-----4--4-4-----------6--6-6-6-6-6-6-6------2---2-2-2---4---4-4-4-----------------|
A|-------6-6-----6--6-6-----------4--4-4-4-4-4-4-4------0---0-0-0---6---6-6-6-----------------|
E|-------4-4-----4--4-4---------------------------------------------5---5-5-5-----------------|
        Won't you make a showing everybody knows what to do
 
 
 
e|------0----0----0----0-----4-4------4------0-----0-----0---0---0---0-------0-----0-----0---0---0-----|
B|------0----0----0----0-----4-4------4------5-----4-----2---2---2---2-------5-----4-----2---2---2-----|
G|------4----4----4----4-----4-4------4------6-----4-----2---2---2---2-------6-----4-----2---2---2-----|
D|------2----2----2----2-----4-4------4------6-----4-----2---2---2---2-------6-----4-----2---2---2-----|
A|------X----X----X----X-----6-6------6------0-----0-----0---0---0---0-------0-----0-----0---0---0-----|
E|------4----4----4----4-----4-4------4----------------------------------------------------------------|
Take a dive from your ivory tower And fall on ev...ery...one will catch you, ev....ery...one
 
 
[Verse 3]
 
e|------------9-9------------7-7----------4-4-----2-2--------0-0--0-0--0-0--0-0---------|
B|------------9-9------------7-7----------5-5-----4-4--------0-0--0-0--0-0--0-0---------|
G|------------9-9------------8-8----------6-6-----4-4--------2-2--2-2--2-2--2-2---------|
D|------------6-6------------9-9----------6-6-----4-4--------2-2--2-2--2-2--2-2---------|
A|------------7-7------------7-7----------4-4-----2-2--------0-0--0-0--0-0--0-0---------|
E|------------0-0------------0-0----------X-X-----X-X--------X-X--X-X--X-X--X-X---------|
    I would   b...e...    so pleased      to spend          some time
        To hear a little   talk about    what's been on your mind
 
 
e|-----------2----0-0---4-4-4---4-4-4-----------4-4------X-X------0-0-0---0-0-0-----2--------X-X-------|
B|-----------2----2-2---4-4-4---4-4-4-----------5-5------4-4------2-2-2---2-2-2-----2--------4-4-------|
G|-----------2----1-1---4-4-4---4-4-4-----------6-6------4-4------1-1-1---1-1-1-----2--------4-4-------|
D|-----------0----2-2---2-2-2---2-2-2-----------6-6------4-4------2-2-2---2-2-2-----2--------4-4-------|
A|-----------0----0-0---2-2-2---2-2-2-----------4-4------2-2------0-0-0---0-0-0-----4--------2-2-------|
E|----------------------0-0-0---0-0-0-----------------------------------------------2--------X-X-------|
   'Cause it don't take long                 to turn my head      around           if it comes easy
 
 
 
e|-----------0-------0-------0---0-0-0-----------------2----------X-X-----4--4-4-4--4-4-4-----|
B|-----------5-------4-------2---2-2-2-----------------2----------4-4-----4--4-4-4--4-4-4-----|
G|-----------6-------4-------2---2-2-2-----------------2----------4-4-----4--4-4-4--4-4-4-----|
D|-----------6-------4-------2---2-2-2-----------------2----------4-4-----2--2-2-2--2-2-2-----|
A|-----------0-------0-------0---0-0-0-----------------4----------2-2-----2--2-2-2--2-2-2-----|
E|-----------X-------X-------X---X-X-X-----------------2------------------0--0-0-0--0-0-0-----|
      Cause  ev......ery.....one            needs the love of the common man
 
 
 
e|------4-4------X-X------0-0-0---0-0-0-----2--------X-X---------------------------------|
B|------5-5------4-4------2-2-2---2-2-2-----2--------4-4---------------------------------|
G|------4-4------4-4------1-1-1---1-1-1-----2--------4-4---------------------------------|
D|------6-6------4-4------2-2-2---2-2-2-----2--------4-4---------------------------------|
A|------4-4------2-2------0-0-0---0-0-0-----4--------2-2---------------------------------|
E|------------------------------------------2--------X-X---------------------------------|
    To turn the world around                Too late tomorrow
 
 
 
e|-----------0-------0-------0---0-0-0-----------------2----------X-X-----4--4-4-4--4-4-4-----|
B|-----------5-------4-------2---2-2-2-----------------2----------4-4-----4--4-4-4--4-4-4-----|
G|-----------6-------4-------2---2-2-2-----------------2----------4-4-----4--4-4-4--4-4-4-----|
D|-----------6-------4-------2---2-2-2-----------------2----------4-4-----2--2-2-2--2-2-2-----|
A|-----------0-------0-------0---0-0-0-----------------4----------2-2-----2--2-2-2--2-2-2-----|
E|-----------X-------X-------X---X-X-X-----------------2------------------0--0-0-0--0-0-0-----|
      Cause  ev......ery.....one            needs the love of the common man
 
 
 
e|------4-4------X-X------0-0-0---0-0-0-----2--------X-X---------------------------------|
B|------5-5------4-4------2-2-2---2-2-2-----2--------4-4---------------------------------|
G|------4-4------4-4------1-1-1---1-1-1-----2--------4-4---------------------------------|
D|------6-6------4-4------2-2-2---2-2-2-----2--------4-4---------------------------------|
A|------4-4------2-2------0-0-0---0-0-0-----4--------2-2---------------------------------|
E|------------------------------------------2--------X-X---------------------------------|
    To turn the world around                Too late tomorrow
 
 
e|-----------0-------0-------0---0-0-0----------2--2-2----X--X--X--0---------------------|
B|-----------5-------4-------2---2-2-2----------2--2-2----4--4--4--2---------------------|
G|-----------6-------4-------2---2-2-2----------2--2-2----4--4--4--1---------------------|
D|-----------6-------4-------2---2-2-2----------2--2-2----4--4--4--2---------------------|
A|-----------0-------0-------0---0-0-0----------4--6-4----2--2--2--0---------------------|
E|-----------X-------X-------X---X-X-X----------2--2-2-----------------------------------|
      Cause  ev......ery.....one            Oh oh oh...oh....oh....oh....oh...
            
Submit corrections

↑ Back to top | Tablatures and chords for acoustic guitar and electric guitar, ukulele, drums are parodies/interpretations of the original songs. You may use it for private study, scholarship, research or language learning purposes only