» » »

Tj Monterde - Ikaw At Ako Tabs

Artists:  A B C D E F G H I J K L M N O P Q R S T U V W X Y Z # 

Ikaw At Ako Tabs

(ver. 1) Click to play this song!
Tj Monterde
 Rating:
4.4/5 (17 votes)

 Ikaw At Ako  lessons Tabs too difficult? Try these video lessons and learn fast
 
                [Intro]

e|-------------------------------------------------------------|
B|-------------------------------------------------------------| 
G|------6------------------6-----------------------------------|
D|-4h6s8--8-6--4h6s8--4h6s8-8-6-4------------------------------|  
A|-------------------------------4-----------------------------|  
E|-------------------------------------------------------------|


[Verse 1]

e|-------------------------------------------------------------|
B|-------------------------------------------------------------|
G|--6-6------6-------6s8sb6--------6-6----------6s8sb6---------|
D|-----8-6-4--8--6---------6-8-6-4----8-6-4h6s8------6-8-6-4---|
A|-------------------------------------------------------------|
E|-------------------------------------------------------------|


[Chorus]

e|-------------------------------------------------------------|
B|-------------------------------------------------------------| 
G|------6------------------6-----------------------------------|x2
D|-4h6s8--8-6--4h6s8--4h6s8-8-6-4------------------------------|  
A|-------------------------------4-----------------------------| 
E|-------------------------------------------------------------|


[Verse2]

e|-------------------------------------------------------------|
B|-------------------------------------------------------------|
G|--6-6------6-------6s8sb6--------6-6----------6s8sb6---------|
D|-----8-6-4--8--6---------6-8-6-4----8-6-4h6s8------6-8-6-4---|
A|-------------------------------------------------------------|
E|-------------------------------------------------------------|


[Chorus]

e|-------------------------------------------------------------|
B|-------------------------------------------------------------|
G|------6------------------6-----------------------------------|x2
D|-4h6s8--8-6--4h6s8--4h6s8-8-6-4------------------------------|  
A|-------------------------------4-----------------------------| 
E|-------------------------------------------------------------|            
Submit corrections


        Ikaw At Ako  lessons Hard to play? Try these video lessons and learn fast Ikaw At Ako  lessons
        
↑ Back to top | Tablatures and chords for acoustic guitar and electric guitar, ukulele, drums are parodies/interpretations of the original songs. You may use it for private study, scholarship, research or language learning purposes only