» » »

Titus Andronicus - Stranded On My Own Tabs

Artists:  A B C D E F G H I J K L M N O P Q R S T U V W X Y Z # 

Stranded On My Own Tabs

(ver. 1) Click to play this song!
Titus Andronicus
 Rating:
4.3/5 (28 votes)

 Stranded On My Own  lessons Tabs too difficult? Try these video lessons and learn fast
 
                Tuning: Standard

e|---------------------------------------------------------------5--0--5-7-----|
B|--7--7-7-7-7-7-7----------7-10-7---7-7---------------------------------------|
G|-------------------9-7-9---------------9-7-9-6-6-6---6-9--6-9----------------|
D|---------------------------------------------------7-------------------------|
A|-----------------------------------------------------------------------------|
E|-----------------------------------------------------------------------------|

e|----7-10--7-10-14-------14-17--19--17------------------17--------------------|
B|--8------------------17----------------19-17-----17-19----19---19-19--17-17--|
G|---------------------------------------------19------------------------------|
D|-----------------------------------------------------------------------------|
A|-----------------------------------------------------------------------------|
E|-----------------------------------------------------------------------------|

e|-----------------------------------------------------------------------------|
B|------17-17------------------------------------------------------------------|
G|19-19-------18-18-18-16-----18-18-16-16-----/19-19-19--19-19-19-19-19-19-19\-|
D|-------------------------19--------------19-/19-19-19--19-19-19-19-19-19-19\-|
A|-----------------------------------------------------------------------------|
E|-----------------------------------------------------------------------------|
            
Submit corrections


        Stranded On My Own  lessons Hard to play? Try these video lessons and learn fast Stranded On My Own  lessons
        
↑ Back to top | Tablatures and chords for acoustic guitar and electric guitar, ukulele, drums are parodies/interpretations of the original songs. You may use it for private study, scholarship, research or language learning purposes only