Home » T » Tim Hughes »

Tim Hughes - Happy Day Tabs

Artists:  A B C D E F G H I J K L M N O P Q R S T U V W X Y Z # 

Happy Day Tabs

(ver. 1) Click to play this song!
Tim Hughes
[Intro]

e |----------------------------|----------------------------|
B |--8--8--8--8--8--8--8--8----|--8--6--6--6--6--6--6--6----|
G |--5--5--5--5--5--5--5--5----|--5--5--5--5--5--5--5--5----|
D |----------------------------|----------------------------|
A |----------------------------|----------------------------|
E |----------------------------|----------------------------|

e |----------------------------|----------------------------|
B |--6--5--5--5--5--5--5--5----|--5--6--6--6--6--6----------|
G |--5--5--5--5--5--5--5--5----|--5--5--5--5--5--5----------|
D |----------------------------|----------------------------|
E |----------------------------|----------------------------|
E |----------------------------|--------------------x--x----|

e |----------------------------|----------------------------|
B |--8--8--8--8--8--8--8--8----|--8--6--6--6--6--6--6--6----|
G |--5--5--5--5--5--5--5--5----|--5--5--5--5--5--5--5--5----|
D |----------------------------|----------------------------|
A |----------------------------|----------------------------|
E |----------------------------|----------------------------|

e |----------------------------|----------------------------|
B |--6--5--5--5--5--5--5--5----|--5--6--6--6--6--6--6--6----|
G |--5--5--5--5--5--5--5--5----|--5--5--5--5--5--5--5--5----|
D |----------------------------|----------------------------|
A |----------------------------|----------------------------|
E |----------------------------|----------------------------|


[Verse 1]

e |--------3--------3----------|--------3--------3----------|
B |-----5--------5--------5----|-----5--------5--------5----|
G |--5--------5--------5-------|--5--------5--------5-------|
D |----------------------------|----------------------------|
A |----------------------------|----------------------------|
E |----------------------------|----------------------------|

e |--------3--------3----------|--------3--------3----------|
B |-----6--------6--------6----|-----6--------6--------6----|
G |--5--------5--------5-------|--5--------5--------5-------| 
D |----------------------------|----------------------------|
A |----------------------------|----------------------------|
E |----------------------------|----------------------------|

PM------------------------------------------------------|
e |--------3--------3----------|--------3--------3----------|
B |-----5--------5--------5----|-----5--------5--------5----|
G |--5--------5--------5-------|--5--------5--------5-------|
D |----------------------------|----------------------------|
A |----------------------------|----------------------------|
E |----------------------------|----------------------------|

PM------------------------------------------------------|
e |--------3--------3----------|--------3--------3----------|
B |-----6--------6--------6----|-----6--------6--------6----|
G |--5--------5--------5-------|--5--------5--------5-------| 
D |----------------------------|----------------------------|
A |----------------------------|----------------------------|
E |----------------------------|----------------------------|

e |--------3--------3----------|--------3--------3----------|
B |-----6--------6--------6----|-----6--------6--------6----|
G |--5--------5--------5-------|--5--------5--------5-------|
D |----------------------------|----------------------------|
A |----------------------------|----------------------------|
E |----------------------------|----------------------------|

e |--------8--------8----------|--------8--------8----------|
B |-----6--------6--------6----|-----6--------6--------6----|
G |--5--------5--------5-------|--5--------5--------5-------|
D |----------------------------|----------------------------|
A |----------------------------|----------------------------|
E |----------------------------|----------------------------|


[Chorus]

e |----------------------------|----------------------------|
B |--8--8--8--8--8--8--8--8----|--8--6--6--6--6--6--6--6----|
G |--5--5--5--5--5--5--5--5----|--5--5--5--5--5--5--5--5----|
D |----------------------------|----------------------------|
A |----------------------------|----------------------------|
E |----------------------------|----------------------------|

e |----------------------------|----------------------------|
B |--6--5--5--5--5--5--5--5----|--5--6--6--6--6--6--6--6----|
G |--5--5--5--5--5--5--5--5----|--5--5--5--5--5--5--5--5----|
D |----------------------------|----------------------------|
A |----------------------------|----------------------------|
E |----------------------------|----------------------------|

e |----------------------------|----------------------------|
B |--8--8--8--8--8--8--8--8----|--8--6--6--6--6--6--6--6----|
G |--5--5--5--5--5--5--5--5----|--5--5--5--5--5--5--5--5----|
D |----------------------------|----------------------------|
A |----------------------------|----------------------------|
E |----------------------------|----------------------------|

e |----------------------------|----------------------------|
B |--6--5--5--5--5--5--5--5----|--5--6--6--6--6--6--6--6----|
G |--5--5--5--5--5--5--5--5----|--5--5--5--5--5--5--5--5----|
D |----------------------------|----------------------------|
A |----------------------------|----------------------------|
E |----------------------------|----------------------------|

e |--------------12-12---------|--------12-12-13-13---------|
B |--13-13-15-15-------13-13---|--15-15-------------15-15---|
G |----------------------------|----------------------------|
D |----------------------------|----------------------------|
A |----------------------------|----------------------------|
E |----------------------------|----------------------------|

e |--------------12-12---------|----------------------------|
B |--13-13-15-15-------13-13---|--12-12-12-12-12-12-12-12---|
G |----------------------------|----------------------------|
D |----------------------------|----------------------------|
A |----------------------------|----------------------------|
E |----------------------------|----------------------------|

e |--------------12-12---------|--------12-12-13-13---------|
B |--13-13-15-15-------13-13---|--15-15-------------15-15---|
G |----------------------------|----------------------------|
D |----------------------------|----------------------------|
A |----------------------------|----------------------------|
E |----------------------------|----------------------------|

e |--------------12-12---------|----------------------------|
B |--13-13-15-15-------13-13---|--12-12-12-12-12-12-12-12---|
G |----------------------------|----------------------------|
D |----------------------------|----------------------------|
A |----------------------------|----------------------------|
E |----------------------------|----------------------------|


[Verse 2]

PM------------------------------------------------------|
e |--------3--------3----------|--------3--------3----------|
B |-----5--------5--------5----|-----5--------5--------5----|
G |--5--------5--------5-------|--5--------5--------5-------|
D |----------------------------|----------------------------|
A |----------------------------|----------------------------|
E |----------------------------|----------------------------|

PM------------------------------------------------------|
e |--------3--------3----------|--------3--------3----------|
B |-----6--------6--------6----|-----6--------6--------6----|
G |--5--------5--------5-------|--5--------5--------5-------|
D |----------------------------|----------------------------|
A |----------------------------|----------------------------|
E |----------------------------|----------------------------|


PM------------------------------------------------------|
e |--------3--------3----------|--------3--------3----------|
B |-----5--------5--------5----|-----5--------5--------5----|
G |--5--------5--------5-------|--5--------5--------5-------|
D |----------------------------|----------------------------|
A |----------------------------|----------------------------|
E |----------------------------|----------------------------|

PM------------------------------------------------------|
e |--------3--------3----------|--------3--------3----------|
B |-----6--------6--------6----|-----6--------6--------6----|
G |--5--------5--------5-------|--5--------5--------5-------| 
D |----------------------------|----------------------------|
A |----------------------------|----------------------------|
E |----------------------------|----------------------------|

e |--------3--------3----------|--------3--------3----------|
B |-----6--------6--------6----|-----6--------6--------6----|
G |--5--------5--------5-------|--5--------5--------5-------|
D |----------------------------|----------------------------|
A |----------------------------|----------------------------|
E |----------------------------|----------------------------|

e |--------8--------8----------|--------8--------8----------|
B |-----6--------6--------6----|-----6--------6--------6----|
G |--5--------5--------5-------|--5--------5--------5-------|
D |----------------------------|----------------------------|
A |----------------------------|----------------------------|
E |----------------------------|----------------------------|


[Chorus]

e |----------------------------|----------------------------|
B |--8--8--8--8--8--8--8--8----|--8--6--6--6--6--6--6--6----|
G |--5--5--5--5--5--5--5--5----|--5--5--5--5--5--5--5--5----|
D |----------------------------|----------------------------|
A |----------------------------|----------------------------|
E |----------------------------|----------------------------|

e |----------------------------|----------------------------|
B |--6--5--5--5--5--5--5--5----|--5--6--6--6--6--6--6--6----|
G |--5--5--5--5--5--5--5--5----|--5--5--5--5--5--5--5--5----|
D |----------------------------|----------------------------|
A |----------------------------|----------------------------|
E |----------------------------|----------------------------|

e |----------------------------|----------------------------|
B |--8--8--8--8--8--8--8--8----|--8--6--6--6--6--6--6--6----|
G |--5--5--5--5--5--5--5--5----|--5--5--5--5--5--5--5--5----|
D |----------------------------|----------------------------|
A |----------------------------|----------------------------|
E |----------------------------|----------------------------|

e |----------------------------|----------------------------|
B |--6--5--5--5--5--5--5--5----|--5--6--6--6--6--6--6--6----|
G |--5--5--5--5--5--5--5--5----|--5--5--5--5--5--5--5--5----|
D |----------------------------|----------------------------|
A |----------------------------|----------------------------|
E |----------------------------|----------------------------|

e |--------------12-12---------|--------12-12-13-13---------|
B |--13-13-15-15-------13-13---|--15-15-------------15-15---|
G |----------------------------|----------------------------|
D |----------------------------|----------------------------|
A |----------------------------|----------------------------|
E |----------------------------|----------------------------|

e |--------------12-12---------|----------------------------|
B |--13-13-15-15-------13-13---|--12-12-12-12-12-12-12-12---|
G |----------------------------|----------------------------|
D |----------------------------|----------------------------|
A |----------------------------|----------------------------|
E |----------------------------|----------------------------|


e |--------------12-12---------|--------12-12-13-13---------|
B |--13-13-15-15-------13-13---|--15-15-------------15-15---|
G |----------------------------|----------------------------|
D |----------------------------|----------------------------|
A |----------------------------|----------------------------|
E |----------------------------|----------------------------|

e |--------------12-12---------|----------------------------|
B |--13-13-15-15-------13-13---|--12-12-12-12-12-12-12-12---|
G |----------------------------|----------------------------|
D |----------------------------|----------------------------|
A |----------------------------|----------------------------|
E |----------------------------|----------------------------|


[Bridge]

e |----------------------------|----------------------------|
B |----------------------------|----------------------------|
G |----------------------------|----------------------------|
D |----------------------------|----------------------------| x8
A |----------------------------|----------------------------|
E |----------------------------|----------------------------|


[Chorus]

e |----------------------------|----------------------------|
B |--8--8--8--8--8--8--8--8----|--8--6--6--6--6--6--6--6----|
G |--5--5--5--5--5--5--5--5----|--5--5--5--5--5--5--5--5----|
D |----------------------------|----------------------------|
A |----------------------------|----------------------------|
E |----------------------------|----------------------------|

e |----------------------------|----------------------------|
B |--6--5--5--5--5--5--5--5----|--5--6--6--6--6--6--6--6----|
G |--5--5--5--5--5--5--5--5----|--5--5--5--5--5--5--5--5----|
D |----------------------------|----------------------------|
A |----------------------------|----------------------------|
E |----------------------------|----------------------------|

e |----------------------------|----------------------------|
B |--8--8--8--8--8--8--8--8----|--8--6--6--6--6--6--6--6----|
G |--5--5--5--5--5--5--5--5----|--5--5--5--5--5--5--5--5----|
D |----------------------------|----------------------------|
A |----------------------------|----------------------------|
E |----------------------------|----------------------------|

e |----------------------------|----------------------------|
B |--6--5--5--5--5--5--5--5----|--5--6--6--6--6--6--6--6----|
G |--5--5--5--5--5--5--5--5----|--5--5--5--5--5--5--5--5----|
D |----------------------------|----------------------------|
A |----------------------------|----------------------------|
E |----------------------------|----------------------------|

e |--------------12-12---------|--------12-12-13-13---------|
B |--13-13-15-15-------13-13---|--15-15-------------15-15---|
G |----------------------------|----------------------------|
D |----------------------------|----------------------------|
A |----------------------------|----------------------------|
E |----------------------------|----------------------------|

e |--------------12-12---------|----------------------------|
B |--13-13-15-15-------13-13---|--12-12-12-12-12-12-12-12---|
G |----------------------------|----------------------------|
D |----------------------------|----------------------------|
A |----------------------------|----------------------------|
E |----------------------------|----------------------------|

e |--------------12-12---------|--------12-12-13-13---------|
B |--13-13-15-15-------13-13---|--15-15-------------15-15---|
G |----------------------------|----------------------------|
D |----------------------------|----------------------------|
A |----------------------------|----------------------------|
E |----------------------------|----------------------------|

e |--------------12-12---------|----------------------------|
B |--13-13-15-15-------13-13---|--12-12-12-12-12-12-12-12---|
G |----------------------------|----------------------------|
D |----------------------------|----------------------------|
A |----------------------------|----------------------------|
E |----------------------------|----------------------------|            
Submit corrections

↑ Back to top | Tablatures and chords for acoustic guitar and electric guitar, ukulele, drums are parodies/interpretations of the original songs. You may use it for private study, scholarship, research or language learning purposes only