Home » T » Tim Hughes »

Tim Hughes - At Your Name Tabs

Artists:  A B C D E F G H I J K L M N O P Q R S T U V W X Y Z # 

At Your Name Tabs

(ver. 1) Click to play this song!
Tim Hughes
e|---------------------------------------------------------------------------|
B|---------------------------------------------------------------------------|
G|-----0----0----0---0---0------0-------------------0----0----0----0-----0---|
D|-0---------------------------------0---0--2---0----------------------------|
A|-2---2----2----2---2---2------2----2---2--3---2---2----2----2----2-----2---|
E|---------------------------------------------------------------------------|
   at Your name the mountains shake and crumble at Your name the oceans roar 
e|---------------------------------------------------------------------------|
B|----------------0-----------0----------------------------0--0--------------|
G|------------0--------2---2-------2---0----0---0-----2------------0----0--2-|
D|--0--0-2----2---2----0---0--0----0---0----0---0-----0----0--0----0----0--0-|
A|--2--2-3-------------------------------------------------------------------|
E|---------------------------------------------------------------------------|
   and tumble at Your name angels will bow the earth will rejoice Your people
e|---------------------------------------------------------------------------|
B|-0-------------------------------------------------------------------------|
G|-----2---------------------------------------------------------------------|
D|-0---0---------------------------------------------------------------------|
A|---------------------------------------------------------------------------|
E|---------------------------------------------------------------------------|
   cry out
e|---------------------------------------------------------------------------|
B|-------1---1--1----0----0-------------0----0----------0----0----1---1--1---|
G|----------------------------0----2---------------2-------------------------|
D|-------0---0--0----0----0---0----0----0----0-----0----0----0----0---0--0---|
A|---------------------------------------------------------------------------|
E|---------------------------------------------------------------------------|
chorus: Lord of all the earth we shout your name shout your name filling up 
e|---------------------------------------------------------------------------|
B|---0---0-------------0-----0--------0-----0------3-3----3-3--3---3---3-----|
G|--------------0---0--------------2-----------------------------------------|
D|---0---0------0---2--0-----0-----0--0-----0------0-0----0-0--0---0---0-----|
A|---------------------------------------------------------------------------|
E|---------------------------------------------------------------------------|
    the skies with endless praise endless praise Yahweh Yahweh we love to 
e|---------------------------------------------------------------------------|
B|---3-----3----3---1---0----------------------------------------------------|
G|---------------------------------------------------------------------------|
D|---0-----0----0---0---0----------------------------------------------------|
A|---------------------------------------------------------------------------|
E|---------------------------------------------------------------------------|
    shout your name oh Lord
e|---------------------------------------------------------------------------|
B|---------------------------------------0----0----------0-------------------|
G|-------0----2--2---2---2---2----2--2---------------0----------0----0---2---|
D|-------0----0--0---0---0---0----0--0---0----0------0---0------0----0---0---|
A|---------------------------------------------------------------------------|
E|---------------------------------------------------------------------------|
bridge: there is no one like our God we will praise You praise You there is 
e|---------------------------------------------------------------------------|
B|---------------------------0----0-------0----1-----------------------------|
G|---2---2---2---2---2---2------------2--------------------------------------|
D|---0---0---0---0---0---0---0----0---0---0----0-----------------------------|
A|---------------------------------------------------------------------------|
E|---------------------------------------------------------------------------|
     no one like our God we will sing we will sing             
Submit corrections

↑ Back to top | Tablatures and chords for acoustic guitar and electric guitar, ukulele, drums are parodies/interpretations of the original songs. You may use it for private study, scholarship, research or language learning purposes only