Home » T » Tim Hardin »

Tim Hardin - Black Sheep Boy Tabs

Artists:  A B C D E F G H I J K L M N O P Q R S T U V W X Y Z # 

Black Sheep Boy Tabs

(ver. 1) Click to play this song!
Tim Hardin
By Tim Hardin

Intro
e-0------------------------------------------1---0---|
b-------1-----------0_1----3-----0_1-----3---3---1---|
G-------------0-----0_2----0-----0_2-----0-------0---|
D----2----------2-------0-----0-------0------0-------|
A-3----------------------------------------------3---|
E----------3--------3------3-----3-------3-----------|
C         Em   Am         G                 G7
Here I am back home again, and I'm here to rest
C        Em      Am              G     G7          C
All they ask is where I've been, knowing I've been West
Am                G           F                C
I'm the family's unowned boy, golden curls of envied hair
C      Em          Am    G
Pretty girls with faces fair
G7                    C
See the shine in the Black Sheep Boy
         C            Am              G           G7
If you love me, let me live in peace, please understand
 C                   Em                   G     G7
That the black sheep can wear the golden fleece
                    C
And hold a winning hand
Am                G           F                C
I'm the family's unowned boy, golden curls of envied hair
C      Em          Am    G
Pretty girls with faces fair
G7                    C
See the shine in the Black Sheep Boy
e-3-0----0-------------------------------------------------|
b----------3----3-1----1-0------0--------------------------|
G-----------------------------2------------3_4-------------|
D-----2------2------2------0-------0----0-------0-----0----|
A-3------2------0------------------------------------------|
E----------------------3------3-------3----3-------3-------|
e-3-0----0-------------------------------0-----------------|
b----------3----3-1----1-0------0-----3-----1--------------|
G-----------------------------2----------------------------|
D-----2------2------2------0-------0-----0-----2-----2-----|
A-3------2------0---------------------------3-----------3--|
E----------------------3------3-------3-----------3--------|
C         Em   Am         G                 G7
Here I am back home again, and I'm here to rest
C        Em      Am              G     G7          C
All they ask is where I've been, knowing I've been West
Am                G           F                C
I'm the family's unowned boy, golden curls of envied hair
C      Em          Am    G
Pretty girls with faces fair
G7                    C
See the shine in the Black Sheep Boy
            
Submit corrections

↑ Back to top | Tablatures and chords for acoustic guitar and electric guitar, ukulele, drums are parodies/interpretations of the original songs. You may use it for private study, scholarship, research or language learning purposes only