» » »

Tim Christensen - Maggie My Dear Tabs

Artists:  A B C D E F G H I J K L M N O P Q R S T U V W X Y Z # 

Maggie My Dear Tabs

(ver. 1) Click to play this song!
Tim Christensen
 Rating:
4.2/5 (5 votes)

 Maggie My Dear lessons Tabs too difficult? Try these video lessons and learn fast
 
                    ___________________
   / Tim Christensen  /
  / Maggie My Dear   /
 / Superior         /
/__________________/

I haven't notated a tab this way before, but since this song is packed with
both tons of chords and fills, I find this the easiest way to do it.
When a chord is just notated in the middle of the bar, it simply means that
it's regularly strummed.

 Time: shuffled 3/4
 Key: E major


 Intro:
  Am(add9)/D    C#9           B9               E     E6    E     E6
|---5-7-5-----|---4---------|----2----------|--0--|--0--|--0--|--0--|
|-5-------5---|-4---4-------|-2----2----4---|--0--|--2--|--0--|--2--|
|-5---------5-|-4-----------|-2-------------|--1--|--1--|--1--|--1--|
|-7-----------|-x-----------|-x-------------|--2--|--2--|--2--|--2--|
|-5-----------|-4-----------|-2-------2-----|--2--|--2--|--2--|--2--|
|-------------|-------------|---------------|--0--|--0--|--0--|--0--|



 1st Verse:
   E     B7    E     E6    E     E6   D#7   D#7
|--0--|--2--|--0--|--0--|--0--|--0--|-----|-----|
|--0--|--0--|--0--|--2--|--0--|--2--|--4--|--4--|
|--1--|--2--|--1--|--1--|--1--|--1--|--6--|--6--|
|--2--|--1--|--2--|--2--|--2--|--2--|--5--|--5--|
|--2--|--2--|--2--|--2--|--2--|--2--|--6--|--6--|
|--0--|-----|--0--|--0--|--0--|--0--|-----|-----|

  F#m  F#mmaj7  F#m7   B6
|--2--|---2---|--2--|-----|
|--2--|---2---|--2--|--9--|
|--2--|---2---|--2--|--8--|
|--4--|---3---|--2--|--6--|
|--4--|---4---|--4--|--x--|
|--2--|---2---|--2--|--7--|



 Interlude:
   E     E6    E    B7-9
|--0--|--0--|--0--|-------------|
|--0--|--2--|--0--|-------1-0---|
|--1--|--1--|--1--|-----2-----2-|
|--2--|--2--|--2--|---1---------|
|--2--|--2--|--2--|-2-----------|
|--0--|--0--|--0--|-------------|



 2nd Verse:
Similar to 1st Verse, then extended with this:

  D7/13   D7    B7/13         B7+5
|------|------|-------------|-------------|
|--12--|--10--|-9---9---9---|-8-----------|
|--11--|--11--|-8---8---8---|-8-----------|
|--10--|--10--|-7---7---7---|-7-----------|
|---x--|---x--|-x---x---x---|-x-----------|
|--10--|--10--|-7---7---7---|-7-----------|



 Chorus:
                             1.                          2.
   A(add9)   C9    E    C#9  A(add9)   C9    E    E+5    A(add9)   B7
||----0---|--3--|--0--|-----|---0---|--3--|--0--|--0---||---0---|-----|
||o---0---|--3--|--0--|--4--|---0---|--3--|--0--|--1--o||---0---|-----|
||----6---|--3--|--1--|--4--|---6---|--3--|--1--|--1---||---6---|--8--|
||----7---|--2--|--2--|--3--|---7---|--2--|--2--|--2---||---7---|--7--|
||o---0---|--3--|--2--|--4--|---0---|--3--|--2--|--3--o||---0---|--9--|
||--------|-----|--0--|-----|-------|-----|--0--|--0---||-------|--7--|



 Interlude:
Similar to previous


 3rd Verse:
Similar to 2nd Verse


 Chorus:
Similar to previous



 Bridge:
 D(add+11)                D/C                B7
|--4--|--4--|--4--|--4--|--2--|--2--|--2--|--2--|
|--3--|--3--|--3--|--3--|--3--|--3--|--3--|--0--|
|--2--|--2--|--2--|--2--|--2--|--2--|--2--|--2--|
|--0--|--0--|--0--|--0--|--x--|--x--|--x--|--1--|
|-----|-----|-----|-----|--3--|--3--|--3--|--2--|
|-----|-----|-----|-----|-----|-----|-----|-----|



 "Lay Down Your Arms"-flirt:
Similar to 2nd Verse (the second chord, B7, is just an E6 though)



 Chorus:
Similar to previous, then extend with this:

   E     E7  A(add9)   C9    E    C#9    %     %   A(add9)   B7
|--0--|--0--|---0---|--3--|--0--|-----|-----|-----|---0---|-----|
|--0--|--3--|---0---|--3--|--0--|--4--|-----|-----|---0---|-----|
|--1--|--1--|---6---|--3--|--1--|--4--|-----|-----|---6---|--8--|
|--2--|--0--|---7---|--2--|--2--|--3--|-----|-----|---7---|--7--|
|--2--|--2--|---0---|--3--|--2--|--4--|-----|-----|---0---|--9--|
|--0--|--0--|-------|-----|--0--|-----|-----|-----|-------|--7--|



 Outro:
  Am(add9)/D    C#9           B9             A(add9)  Am6    E
|---5-7-5-----|---4---------|----2----------|---0---|--5--|--4--|
|-5-------5---|-4---4-------|-2----2----4---|---0---|--7--|--5--|
|-5---------5-|-4-----------|-2-------------|---6---|--5--|--4--|
|-7-----------|-3-----------|-1-------------|---7---|--7--|--6--|
|-5-----------|-4-----------|-2-------2-----|---0---|--0--|--7--|
|-------------|-------------|---------------|-------|-----|--0--|



Jon Sebastian Frederiksen - 1st /December /08
            
Submit corrections


        Maggie My Dear lessons Hard to play? Try these video lessons and learn fast Maggie My Dear lessons
        
↑ Back to top | Tablatures and chords for acoustic guitar and electric guitar, ukulele, drums are parodies/interpretations of the original songs. You may use it for private study, scholarship, research or language learning purposes only