Home » T » Timbuktu »

Timbuktu - Sj Inte N Sj J Tabs

Artists:  A B C D E F G H I J K L M N O P Q R S T U V W X Y Z # 

Sj Inte N Sj J Tabs

(ver. 1) Click to play this song!
Timbuktu
Säj Inte Nä Säj Jää


Tuning: EADGBE

Intro/Ending Verse (0.00-0.04)
   B              * *     * * (Hit the guitar with your right hand.)
e|---------------------------------|
B|---------------------------------|
G|-8--8--8--8--8-------------------|
D|-9--9--9--9--9-------------------|
A|-9--9--9--9--9-------------------|
E|-7--7--7--7--7-------------------|

Verse, with some variations, you'll hear it.
(0.04 - Until end of every verse, where you play the above)
  Em           G       A
e|-----------------------------|
B|-8-----8---------------------|
G|-9-----9-----4-4-----6-6-----|
D|-9-----9-----5-5-----7-7-----|
A|-7-----7-----5-5-----7-7-----|
E|-------------3-3-----5-5-----|

End with

e|---------------------------------|
B|---------------------------------|
G|-8--8--8--8--8\------------------|
D|-9--9--9--9--9\------------------|
A|-9--9--9--9--9\------------------|
E|-7--7--7--7--7\------------------|

| /  slide up
| \  slide down
| h  hammer-on
| p  pull-off
| ~  vibrato
| +  harmonic
| x  Mute note
            
Submit corrections

↑ Back to top | Tablatures and chords for acoustic guitar and electric guitar, ukulele, drums are parodies/interpretations of the original songs. You may use it for private study, scholarship, research or language learning purposes only