Home » T » Timberlake Justin »

Timberlake Justin - Rock Your Body Bass

Artists:  A B C D E F G H I J K L M N O P Q R S T U V W X Y Z # 

Rock Your Body Bass

(ver. 1) Click to play this song!
Timberlake Justin

Main line :

G||----------------------------------------------------------------||
D||----------------------------------------------------------------||
A||----------------------------------------------------------------||
E||-3-3-5---17-17----0--0-0-00---12-12-----------------------------||
B||----------------------------------------------------------------||

or

G||---------2-2----------------------------------------------------||
D||------------------------------2-2-------------------------------||
A||----------------------------------------------------------------||
E||-3-3-5------------0--0-0-00-------------------------------------||
B||----------------------------------------------------------------||

I prefer using the first method because gives a better sound.
For the 'bridge' part, just improvise in Em.
            
Submit corrections

↑ Back to top | Tablatures and chords for acoustic guitar and electric guitar, ukulele, drums are parodies/interpretations of the original songs. You may use it for private study, scholarship, research or language learning purposes only