» » »

Three Dog Night - The Show Must Go On Bass

Artists:  A B C D E F G H I J K L M N O P Q R S T U V W X Y Z # 

The Show Must Go On Bass

(ver. 1) Click to play this song!
Three Dog Night
 Rating:
4.4/5 (17 votes)

 The Show Must Go On lessons Tabs too difficult? Try these video lessons and learn fast
 
                [Intro]
  Q=104
 4/4
  Gtr I
   W          +W           W          +W
G|----------|------------|----------|--------|
D|----------|------------|-1--------|-(1)----|
A|-4--------|-(4)--------|----------|--------|
E|----------|------------|----------|--------|

                          Q=152
   W          +W             Q  Q  Q  Q    Q  Q  Q  Q
G|----------|------------||--------------|-------------|
D|-2--------|-(2)--------||o-3-----------|-3-----------|
A|----------|------------||o-------3-----|-------3-----|
E|----------|------------||--------------|-------------|

   Q  Q  Q  Q    Q  Q  Q  Q    Q  Q  Q  Q    Q  Q  Q  Q
G|-------------|-------------|-------------|-------------|
D|-3-----------|-3-----------|-------5-----|-------5-----|
A|-------3-----|-------3-----|-3-----------|-3-----------|
E|-------------|-------------|-------------|-------------|

               1.              2.
   Q  Q  Q  Q    Q  Q  Q  Q      Q  Q  Q  Q
G|-------------|--------------||-------------||
D|-------5-----|-------5-----o||----0--1--2--||
A|-3-----------|-3-----------o||-3-----------||
E|-------------|--------------||-------------||

[1st - 3rd Verses]
    Segno $
     Q  Q  Q  Q    Q  Q  Q  Q    Q  Q  Q  Q    Q  Q  Q  Q
G||--------------|-------------|-------------|--------------|
D||o-3-----------|-3-----------|-3-----------|-3--------3---|
A||o-------3-----|-------3-----|-------3-----|-------3------|
E||--------------|-------------|-------------|--------------|

   Q  Q  Q  Q    Q  Q  Q  Q    Q  Q  Q  Q    Q  Q  Q  Q
G|-------------|-------------|-------------|-------------|
D|-2-----------|-2-----------|-2-----------|----0--1--2--|
A|-------3-----|-------3-----|-------3-----|-3-----------|
E|-------------|-------------|-------------|-------------|

   Q  Q  Q  Q    Q  Q  Q  Q    Q  Q  Q  Q    Q  Q  Q  Q
G|-------------|-------------|-------------|-------------|
D|-3-----------|-3-----------|-3-----------|-3--------3--|
A|-------3-----|-------3-----|-------3-----|-------3-----|
E|-------------|-------------|-------------|-------------|

   Q  Q  Q  Q    Q  Q  Q  Q    Q  Q  Q  Q    Q  Q  Q  Q
G|-------------|-------------|-------------|-------------||
D|-2-----------|-2-----------|-2-----------|-2-----------||
A|-------3-----|-------3-----|-------3-----|----3--3--4--||
E|-------------|-------------|-------------|-------------||

[Chorus]
   Q  Q  Q  Q    Q  Q  Q  Q    Q  Q  Q  Q    Q  Q  Q  Q
G|-------------|-------------|-------------|-------------|
D|-------------|-------------|-7--7--7--7--|-7--7--7--7--|
A|-5--5--5--5--|-5--5--5--5--|-------------|-------------|
E|-------------|-------------|-------------|-------------|

   Q  Q  Q  Q    Q  Q  Q  Q    Q  Q  Q  Q    Q  Q  Q  Q
G|-------------|-------------|-------------|-------------|
D|-------------|-------------|-7--7--7--7--|-7--7--7--7--|
A|-5--5--5--5--|-5--5--5--5--|-------------|-------------|
E|-------------|-------------|-------------|-------------|

                                                To Coda
   Q  Q  Q  Q    Q  Q  Q  Q    Q  Q  Q  Q    Q  Q  Q  Q
G|-------------|-------------|-------------|-------------|
D|-------------|-------------|-7--7--7--7--|-7--7--7--7--|
A|-5--5--5--5--|-5--5--5--5--|-------------|-------------|
E|-------------|-------------|-------------|-------------|

   Q  Q  Q  Q    Q  Q  Q  Q    W          +Q   Q  Q  Q
G|-3--3--3--3--|-3--3--3--3--|----------|----------------||
D|-------------|-------------|-3--------|-(3)--0--1--2--o||
A|-------------|-------------|----------|---------------o||
E|-------------|-------------|----------|----------------||

[Interlude]
     Q  Q  Q  Q    Q  Q  Q  Q    Q  Q  Q  Q    Q  Q  Q  Q
G||--------------|-------------|-------------|--------------|
D||o-3-----------|-3-----------|-3-----------|-3------------|
A||o-------3-----|-------3-----|-------3-----|-------3------|
E||--------------|-------------|-------------|--------------|

                                           1.              2.
   Q  Q  Q  Q    Q  Q  Q  Q    Q  Q  Q  Q    Q  Q  Q  Q      Q  Q  Q  Q
G|-------------|-------------|-------------|--------------||-------------||
D|-------5-----|-------5-----|-------5-----|-------5-----o||-------------||
A|-3-----------|-3-----------|-3-----------|-3-----------o||-3--3--3--4--||
E|-------------|-------------|-------------|--------------||-------------||

[Chorus]
   Q  Q  Q  Q    Q  Q  Q  Q    Q  Q  Q  Q    Q  Q  Q  Q
G|-------------|-------------|-------------|-------------|
D|-------------|-------------|-7--7--7--7--|-7--7--7--7--|
A|-5--5--5--5--|-5--5--5--5--|-------------|-------------|
E|-------------|-------------|-------------|-------------|

   Q  Q  Q  Q    Q  Q  Q  Q    Q  Q  Q  Q    Q  Q  Q  Q
G|-------------|-------------|-------------|-------------|
D|-------------|-------------|-7--7--7--7--|-7--7--7--7--|
A|-5--5--5--5--|-5--5--5--5--|-------------|-------------|
E|-------------|-------------|-------------|-------------|

   Q  Q  Q  Q    Q  Q  Q  Q    Q  Q  Q  Q    Q  Q  Q  Q
G|-------------|-------------|-------------|-------------|
D|-------------|-------------|-7--7--7--7--|-7--7--7--7--|
A|-5--5--5--5--|-5--5--5--5--|-------------|-------------|
E|-------------|-------------|-------------|-------------|

                                         Dal Segno al Coda
   Q  Q  Q  Q    Q  Q  Q  Q    W          +Q   Q  Q  Q
G|-3--3--3--3--|-3--3--3--3--|----------|---------------||
D|-------------|-------------|-3--------|-(3)--0--1--2--||
A|-------------|-------------|----------|---------------||
E|-------------|-------------|----------|---------------||

[Coda]
   Q  Q  Q  Q    Q  Q  Q  Q    Q  Q  Q  Q    Q  Q  Q  Q
G|-3--3--3--3--|-3--3--3--3--|-3--3--3--3--|-3--3--3--3--|
D|-------------|-------------|-------------|-------------|
A|-------------|-------------|-------------|-------------|
E|-------------|-------------|-------------|-------------|

   Q  Q  Q  Q    Q  Q  Q  Q    W          +W
G|-3--3--3--3--|-3--3--3--3--|----------|--------||
D|-------------|-------------|-3--------|-(3)----||
A|-------------|-------------|----------|--------||
E|-------------|-------------|----------|--------||

[Outro]
    Q  Q  Q  Q    Q  Q  Q  Q    Q  Q  Q  Q    Q  Q  Q  Q
G||--------------|-------------|-------------|--------------|
D||o-3-----------|-3-----------|-3-----------|-3------------|
A||o-------3-----|-------3-----|-------3-----|-------3------|
E||--------------|-------------|-------------|--------------|

   Q  Q  Q  Q    Q  Q  Q  Q    Q  Q  Q  Q    Q  Q  Q  Q
G|-------------|-------------|-------------|--------------||
D|-------5-----|-------5-----|-------5-----|----0--1--2--o||
A|-3-----------|-3-----------|-3-----------|-3-----------o||
E|-------------|-------------|-------------|--------------||            
Submit corrections


        The Show Must Go On lessons Hard to play? Try these video lessons and learn fast The Show Must Go On lessons
        
↑ Back to top | Tablatures and chords for acoustic guitar and electric guitar, ukulele, drums are parodies/interpretations of the original songs. You may use it for private study, scholarship, research or language learning purposes only