» » »

Thousand Foot Krutch - Fly On The Wall Tabs

Artists:  A B C D E F G H I J K L M N O P Q R S T U V W X Y Z # 

Fly On The Wall Tabs

(ver. 1) Click to play this song!
Thousand Foot Krutch
 Rating:
4.3/5 (9 votes)

 Fly On The Wall lessons Tabs too difficult? Try these video lessons and learn fast
 
                [Intro/Verse] - on the third repetition the string section plays the chords
[0:00 - 0:48]
    Em                              D
e|--------------------------------------------------------------------------|
B|--------------------------------------------------------------------------|
G|--------------------------------------------------------------------------| __
D|--2-5-4-2---2---2-2-5-4-2---2---2---5-4-------------5--4--2--4------------|   |
A|----------------------------------5-----5---5---5-------------------------|   |
E|--------------------------------------------------------------------------|   |
    . . . .   .   . . . . .   .   . . . . .   .   .   .  .  .  .                |
                                                                                 > Play 3 times
    C                               Em                                          |
e|--------------------------------------------------------------------------|   |
B|--------------------------------------------------------------------------|   |
G|--------------------------------------------------------------------------| __|
D|----5-4-------------5-4-----------2-5-4-2---2---2-2-5-4-2--2--------------| 
A|--3-----3---3---3-3-----3---3---3-----------------------------------------|
E|--------------------------------------------------------------------------|
    . . . .   .   . . . . .   .   . . . . .   .   . . . . .  .

[Pre-chorus] - strum these chords
[0:48 - 1:04]

   Dsus2/A    Esus2
e|---------|---------|
B|----3----|---------|
G|----2----|----4----|
D|----0----|----4----| > Play 2 times
A|----0----|----2----|
E|---------|----0----|

[Chorus] - strum these chords
[1:04 - 1:36]

   C5/G    D5/A     G5      E5
e|-------|-------|-------|--------|
B|-------|-------|-------|--------|
G|---5---|---7---|-------|--------|
D|---5---|---7---|---5---|---2----| > Play 4 times
A|---3---|---5---|---5---|---2----|
E|---3---|---5---|---3---|---0----|

[Interlude]
[1:36 - 1:38]

e|-------------|
B|--10-10-8-7--|
G|-------------|
D|-------------|
A|-------------|
E|-------------|
     .  . . .

[Verse]
[1:38 - 2:25]

Guitar 1
e|--------------------------------------------------------------------------|
B|--------------------------------------------------------------------------|
G|--------------------------------------------------------------------------| __
D|--2-5-4-2---2---2-2-5-4-2---2---2---5-4-------------5--4--2--4------------|   |
A|----------------------------------5-----5---5---5-------------------------|   |
E|--------------------------------------------------------------------------|   |
    . . . .   .   . . . . .   .   . . . . .   .   .   .  .  .  .                |
                                                                                 > Play 3 times
                                                                                |
e|--------------------------------------------------------------------------|   |
B|--------------------------------------------------------------------------|   |
G|--------------------------------------------------------------------------| __|
D|----5-4-------------5-4-----------2-5-4-2---2---2-2-5-4-2--2--------------| 
A|--3-----3---3---3-3-----3---3---3-----------------------------------------|
E|--------------------------------------------------------------------------|
    . . . .   .   . . . . .   .   . . . . .   .   . . . . .  .


Guitar 2 - plays on the third repetition [2:10 - 2:26]
e|--------------------------------------|------------------------------------|
B|--------------------------------------|------------------------------------|
G|--xx-12-x-12-12-xx-14-xx-16-xx-11s12--|--xx-12-xx-12-xx-14-xx-16-xx-11s12--|
D|--xx-14-x-14-14-xx-14-xx-14-xx-14-----|--xx-14-xx-14-xx-14-xx-14-xx-14-----|
A|--------------------------------------|------------------------------------|
E|--------------------------------------|------------------------------------|

e|-------------------------------------------|----------------------------------------|
B|-----10---10-10---10-12----10----10-10-10--|----------------------------------------|
G|--xx-12-x-12-12-x-12-12-xx-12-xx-12-12-12--|--xx-12-xx-12-xx-14-xx-12s11--11s7--7~--|
D|--xx-14-x-14-14-x-14-14-xx-14-xx-14-14-14--|--xx-14-xx-14-xx-14-xx------------------|
E|-------------------------------------------|----------------------------------------|
E|-------------------------------------------|----------------------------------------|


[Pre-chorus]
[2:26 - 2:42]

   Dsus2/A    Esus2
e|---------|---------|
B|----3----|---------|
G|----2----|----4----|
D|----0----|----4----| > Play 2 times
A|----0----|----2----|
E|---------|----0----|

[Chorus]
[2:42 - 3:14]

   C5/G    D5/A     G5      E5
e|-------|-------|-------|--------|
B|-------|-------|-------|--------|
G|---5---|---7---|-------|--------|
D|---5---|---7---|---5---|---2----| > Play 4 times
A|---3---|---5---|---5---|---2----|
E|---3---|---5---|---3---|---0----|

[Break]
[3:14 - 3:22]

[Chorus]
[3:22 - 3:46]

   C5/G    D5/A     G5      E5
e|-------|-------|-------|--------|
B|-------|-------|-------|--------|
G|---5---|---7---|-------|--------|
D|---5---|---7---|---5---|---2----| > Play 3 times
A|---3---|---5---|---5---|---2----|
E|---3---|---5---|---3---|---0----|


[Outro]
[3:46 - 4:02]

Guitar 1
e|--------------------------------------|
B|--------------------------------------|
G|--------------------------------------|
D|----2-4-5--7-9-7-5--9-7-5-4--2-4-5-2--| > Play 2 times
A|--3-----------------------------------|
E|--------------------------------------|
    . . . .  . . . .  . . . .  . . . .

Guitar 2
e|--------------------------------------|
B|--5~~~-----7~~~----12~~~-----9~~~-----|
G|--------------------------------------|
D|--------------------------------------| > Play 2 times
A|--------------------------------------|
E|--------------------------------------|

            
Submit corrections


        Fly On The Wall lessons Hard to play? Try these video lessons and learn fast Fly On The Wall lessons
        
↑ Back to top | Tablatures and chords for acoustic guitar and electric guitar, ukulele, drums are parodies/interpretations of the original songs. You may use it for private study, scholarship, research or language learning purposes only