Home » T » This Town Needs Guns »

This Town Needs Guns - In The Branches Of Yggdrasil Bass

Artists:  A B C D E F G H I J K L M N O P Q R S T U V W X Y Z # 

In The Branches Of Yggdrasil Bass

(ver. 1) Click to play this song!
This Town Needs Guns
Band: This Town Needs Guns

Part 1:

G|---------------------------------------------------------------|
D|-------6-s/--------9-s/-------14s\------6----------6-------9---|
A|---4---------s/7--------s/12--------0---------s/4-----s/7------|
E|---------------------------------------------------------------|

Part 2:

G|-------4-----4------4----------------4-----4------4----------|
D|-----6-----6------6-----4---x2-----6-----6------6-----6---x2-|
A|---0-----0------0-----0----------4-----4------4-----4--------|
E|-------------------------------------------------------------|

These two parts are used throughout the song. Listen to get the song structure :)
            
Submit corrections

↑ Back to top | Tablatures and chords for acoustic guitar and electric guitar, ukulele, drums are parodies/interpretations of the original songs. You may use it for private study, scholarship, research or language learning purposes only