Home » T » This Town Needs Guns »

This Town Needs Guns - If I Sit Still Maybe Ill Get Out Of Here Bass

Artists:  A B C D E F G H I J K L M N O P Q R S T U V W X Y Z # 

If I Sit Still Maybe Ill Get Out Of Here Bass

(ver. 1) Click to play this song!
This Town Needs Guns
INTRO
G----|----------|
D----|----------|
A----|----------|
E-2~-|-4h6-4-2~-|(7x)

PRE-VERSE
G--------|
D--------|
A--------|
E-4h6-4--|

VERSE
G------------~--|
D-----6p4~-8p6~-|
A-9\4-----------|
E---------------|

INTRO
G----|----------|
D----|----------|
A----|----------|
E-2~-|-4h6-4-2~-|(7x)

PRE-BRIDGE
G--------|
D--------|
A--------|
E-4h6-4--|

G----------|
D-4~-6~----|
A----------|
E----------| (yesteryear...)

bass silent until chorus

CHORUS
G--------------|
D------1~------|
A-4~-4~-1~-----|
E---------2~2~-|

BREAK(only guitar and drums at first)
G---------------|
D---------------|
A---------------|
E-2~~-4h6-4~----|


CHORUS
G------------------|
D---------1~-------|
A-4-4~-4-4~-1~-----|
E------------2~2~--|

TRANSITION
G--13h15-13-13-13-13-13h15--|
D---------------------------|
A---------------------------|
E---------------------------|

G---------------------|
D---------------------|
A----------1-1-1-1-1--|
E-2--2-2--2-----------|


CHORUS
G------------------|
D---------1~-------|
A-4-4~-4-4~-1~-----|
E------------2~2~--|

OUTRO
G-----------------------------------------|
D------------------1-1-1------------------|
A-4-4-4-4---4-4-4-4-----1-1-1-------------|
E----------------------------2-2-2-2-2----|

last time like this
G-------------------------------------------|
D--------------------1~---------------------|
A-4-4-4-4---4-4-4-4----1~-------------------|
E------------------------2~~----------2/14~-|            
Submit corrections

↑ Back to top | Tablatures and chords for acoustic guitar and electric guitar, ukulele, drums are parodies/interpretations of the original songs. You may use it for private study, scholarship, research or language learning purposes only